Millencolin - Ballad Chords & Tabs

 

Ballad Chords & Tabs

Millencolin Chords & Tabs

Version: 2 Type: Tab 1 rating
1 star 2 stars 3 stars 4 stars 5 stars
comments

Ballad Tab

   
-------------------------------------------------------------------------------
                         THE BALLAD - Millencolin
-------------------------------------------------------------------------------

Tabbed by: Simon Nash

Clean guitar

[VERSE] 4x
     Gsus2      Em7    Dsus4        Cadd9
e|--3-3-3-3-----3-3-----3-3-----3-3-3-3-3-3-3-3-----|
h|--3-3-3-3-----3-3-----3-3-----3-3-3-3-3-3-3-3-----|
g|----------------------2-2-------------------------|
d|--------------2-2-------------2-2-2-2-2-2-2-2-----|
a|--2-2-2-2-----2-2-------------3-3-3-3-3-3-3-3-----|
E|--3-3-3-3-----x-x-------------x-x-x-x-x-x-x-x-----|
[ Tab from: http://www.guitartabs.cc/tabs/m/millencolin/ballad_tab_ver_2.html ]
[CHORUS] 2x
     Gsus2          Em7     Dsus4            Cadd9
e|--3-3-3-3-----3-3-3-3----3-3-3-3-----3-3-3-3---|
h|--3-3-3-3-----3-3-3-3----3-3-3-3-----3-3-3-3---|
g|-------------------------2-2-2-2---------------|
d|--------------2-2-2-2----------------2-2-2-2---|
a|--2-2-2-2-----2-2-2-2----------------3-3-3-3---|
E|--3-3-3-3----------------------------x-x-x-x---|

[VERSE] 4x
[CHORUS] 2x

[INTERLUDE|Guitar 2] 12x 
(Light Distortion on both guitars!)
Guitar 1 plays something around....dunno

e|----------------------------------------------------|
h|----------------------------------------------------|
g|--12-12-12-12-12-12-12-12--11-11-11-11-11-11-11-11--|
d|--12-12-12-12-12-12-12-12--11-11-11-11-11-11-11-11--|
a|----------------------------------------------------|
E|----------------------------------------------------|

[CHORUS] 18x
(vocals end with #6)

--------------------------------------------------------------------------------
-----------------------------------------------------------------------
Comments