Millencolin - A Whole Lot Less Chords & Tabs

 

A Whole Lot Less Chords & Tabs

Millencolin Chords & Tabs

Version: 2 Type: Bass Tab 0 ratings
1 star 2 stars 3 stars 4 stars 5 stars
comments

A Whole Lot Less Bass Tab

   
----------------------------------------------------------------

               " A Whole Lot Less "/ Millencolin

----------------------------------------------------------------
Album: " The Melancholy Collection " and " Skauch "
Tabbed By: Pat Edwards
                                / Means slide down      > Means strum

        Main Riff 2x
G|---------------------------------------------------------------
D|---------------------------------------------------------------
A|-------3>-/2------------3--------------------------------------
E|--5>-----------3>-3--5-----------------------------------------
[ Tab from: http://www.guitartabs.cc/tabs/m/millencolin/a_whole_lot_less_btab_ver_2.html ]
        2nd Riff 1x
G|---------------------------------------------------------------
D|----------------5----------------------------------------------
A|----------5--7-----3>-/2----------3----------------------------
E|--5>---7-------------------3>--5-------------------------------

        Main Riff 4x

        Interlude 2x
G|---------------------------------------------------------------
D|---------------------------------------------------------------
A|---------------------------------------------------------------
E|--1>---3>---5>-------------------------------------------------

        Bass solo: play Main Riff 2x then 2nd Riff 1x

        During guitar solo play Main Riff and to the end of the    
        song, end on G|---
                         D|---
                       A|---
                         E|-5-

Comments