Millencolin - A-ten Chords & Tabs

 

A-ten Chords & Tabs

Millencolin Chords & Tabs

Version: 2 Type: Tab 0 ratings
1 star 2 stars 3 stars 4 stars 5 stars
comments

A-ten Tab

Someone posted this in the comments section of a crappy tab, so i figured it was my duty 
post it


Intro:
Guitar 1: Repeat 8 times.
e|--5------5------6-----8-----6-----6----------------------------|
B|----6------6------6-----6-----6-----6--------------------------|
G|------7------7------------7-----7------------------------------|
D|---------------------------------------------------------------|
A|---------------------------------------------------------------|
E|---------------------------------------------------------------|

Guitar 2: wait for Guitar 1 to play 2x and then play this.
p
e|--------------------------------------------------5--5----5--5--5--|
B|--------------------------------------------------6--6----6--6--6--|
G|---7------3---5---7---7---3---5---7---7---3---5---7--7----7--7--7--|
D|---7------3---5---7---7---3---5---7---7---3---5--------------------|
A|---5*-----1*--3*--5*--5*--1*--3*--5*--5*--1*--3*-------------------|
E|-------------------------------------------------------------------|

e|--5--5--5--5----5--5-----3---5-------------------------------------|
B|--6--6--6--6----6--6-----3---5-------------------------------------|
G|--7--7--7--7----7--7-----1*--3*------------------------------------|
D|-------------------------------------------------------------------|
A|-------------------------------------------------------------------|
E|-------------------------------------------------------------------|
Verse:
Guitar 1:
e|--8---8---5---6---8---8---5---6------------------------------------|
B|--6---6---6---6---6---6---6---6------------------------------------|
G|--7*--7*--7*--7*--7*--7*--7*--7*-----------------------------------|
D|-------------------------------------------------------------------|
A|-------------------------------------------------------------------|
E|-------------------------------------------------------------------|
Guitar 2:
p p p p p p p p
e|--------------------------------------------------------------------|
B|-10---10------------10----10----------------------------------------|
G|-10---10------------10----10-------------10-10--12-12--14-14--15\14-|
D|-10---10---12---8---10----10---12-----8---X--X---X--X---X--X---X--X-|
A|--8*---7*--12---8---8*----7*---12-----8---8--8--10-10--12-12--13\12-|
E|-----------10*--6*-------------10*----6*----------------------------|

Chorus:
Guitar 1:
e|--5-----5-----5-----8-----6------6-----5-----5-----5-----5-------|
B|----6-----6------6-----6-----6------6----6-----6-----6-----6-----|
G|-----7------7------------7-----7-----------7-----7-----7-----7---|
D|-----------------------------------------------------------------|
A|-----------------------------------------------------------------|
E|-----------------------------------------------------------------|
[ Tab from: http://www.guitartabs.cc/tabs/m/millencolin/a_ten_tab_ver_2.html ]
Guitar 2:
p p p p p
e|-----------------------------------------------------------------|
B|-----------------------------------------------------------------|
G|--7---5---3---12\10--9------3---3--------------------------------|
D|--7---5---3----X--X--X--8---3---3--------------------------------|
A|--5*--3*--1*--10\-8--7--x---1*--1*-------------------------------|
E|------------------------6----------------------------------------|

Repeat Verse:

Repeat Chorus: (Guitar 1 & 2 without the last part)

Bridge:
Guitar 1:
e|--8---6--5--6---------------8------------------------------------|
B|--6---6--6--6---Repeat 4x---6------------------------------------|
G|--7*--7--7*-7---------------7*-----------------------------------|
D|-----------------------------------------------------------------|
A|-----------------------------------------------------------------|
E|-----------------------------------------------------------------|

Guitar 2: Listen to the song to find the timing for this part.
e|-----------------------------------------------------------------|
B|----------------------------------------10-----------------------|
G|----------------------------------------12^*---------------------|
D|--5---7-8----8-8-8-8/10------------------------------------------|
A|--5---7-8----X-X-X-X--X---Repeat 4x------------------------------|
E|--3*--5-6*---6-6-6-6/-8------------------------------------------|

Guitar Solo:
Guitar 1:
e|-----------------------------------------------------------------|
B|-----------------------------------------------------------------|
G|--7---5---3---3---7---5---3---3----------------------------------|
D|--7---5---3---3---7---5---3---3----------------------------------|
A|--5*--3*--1*--1*--5*--3*--1*--1*---------------------------------|
E|-----------------------------------------------------------------|

Guitar 2:
e|-------------------------------------------------------------------|
B|-10--10--10--10--10------------------------------------------------|
G|-12^-12^-12^-12^-12^-12-10-----------10---10--------10---10--9-----|
D|---------------------------12--/10-12---12----/10-12---12------10--|
A|-------------------------------------------------------------------|
E|-------------------------------------------------------------------|

e|-------------------------------------------------------------|
B|------------------------10-------------------6-6-6-6-8-8-8-8-|
g|-9-10-9-------9-10-9-----------------------------------------|
d|--------10-12--------10----9\7-7-7-7-9-9-9-9-----------------|
a|-------------------------------------------------------------|
e|-------------------------------------------------------------|
Outro:
Guitar 1:
e|--5------5------5---8-----6-----5-------------------------------|
B|----6------6------6---6-----6-----6--Repeat 7x------------------|
G|------7------7----------7-----7------------------10-------------|
D|-------------------------------------------------10--Fade out---|
A|--------------------------------------------------8-------------|
E|----------------------------------------------------------------|

Guitar 2:
e|---------------------------------------------------------------|
B|---------------------------------------------------------------|
G|--3--5--7--7--3--5--7--7--3--5--7--7--3--5--7--3---------------|
D|--3--5--7--7--3--5--7--7--3--5--7--7--3--5--7--3---fade out----|
A|--1*-3*-5*-5*-1*-3*-5*-5*-1*-3*-5*-5*-1*-3*-5*-1---------------|
E|---------------------------------------------------------------|
Comments