Millencolin - 9 - 5 Chords & Tabs

 

9 - 5 Chords & Tabs

Millencolin Chords & Tabs

Version: 1 Type: Bass Tab 0 ratings
1 star 2 stars 3 stars 4 stars 5 stars
comments

9 - 5 Bass Tab

   
Song: 9-5
Artist: Millenclolin
Album: The Melancholy Collection
Tuning: standard (E-A-D-G)

Intro

G--------------------------------------|
D--------------------------------------|
A--4567-7-7-7-7-4567-7-7-7-------------|
E--------------------------------------|

Verse
[ Tab from: http://www.guitartabs.cc/tabs/m/millencolin/9_5_btab.html ]
G---------------------------------------|
D---------------------------------------|
A--7777777-12-12-12-12--777777----------|
E------------------------------77777777-|

Chorus

G-----------------------------------------|
D-7-7-7-7-7-7-7-7-7-----------------------|
A--------------------7-7-7-7-7-7-7-7-7-7--|
E-----------------------------------------|


Twiddly Bit and Outro

G--9-7-7---9-7-7--9-7-------7----------------------|
D-----9-9-----9-9-----9-7-9---9-7------------------|
A---------------------------------7\---------------|
E--------------------------------------------------|
Comments