Miles To Go - Where Are We Going Now Chords & Tabs

 

Where Are We Going Now Chords & Tabs

Miles To Go Chords & Tabs

Version: 2 Type: Bass Tab 0 ratings
1 star 2 stars 3 stars 4 stars 5 stars
comments

Where Are We Going Now Bass Tab

   
Artist: Miles to Go
Song:   Where are we going now?
Album: Different boots and same jacket.

Bass tab.

Intro

G|-14h16~-14-------------------------------|
D|-------------15h17h19-20-19-17-----------|
A|-----------2-----------------------------|
E|-----------------------------------------|

[ Tab from: http://www.guitartabs.cc/tabs/m/miles_to_go/where_are_we_going_now_btab_ver_2.html ]
G|-14h16-19~-12p11p9-----------------------|
D|--------------------9-7------------------|
A|------------------------8-9--------------|
E|-----------------------------------------|

Verse and Chorus (chords indicate timing

    G	     A       G     F
G|------------------------------------------|
D|------------------------------------------|
A|---5---5---3---3---1---1---3---3----------|
E|-3---3---5---5---3---3---1---1------------|

?Miles To Go
Comments