Miles Davis - So What Chords & Tabs

 

So What Chords & Tabs

Miles Davis Chords & Tabs

Version: 1 Type: Tab 0 ratings
1 star 2 stars 3 stars 4 stars 5 stars
comments

So What Tab

Miles Daiv's "So What"

the actual tune is played by the bass guitar but can be also played by
the eletric guitar and the piano

E------------------------7--5--------------------7--5--------------------|
B------------------------8--6--------------------8--6--------------------|
G------------------------7--5--------------------7--5--------------------|
D------------------------------------------------------------------------|
A--------5-7-5---5---------------------5-7-5--5-----------------5-7-5--5-|
E--5-7-8-------8--5-------------5-7-8--------8----------5-7-8--------8-5-|
[ Tab from: http://www.guitartabs.cc/tabs/m/miles_davis/so_what_tab.html ]
E--7--5-------------------------|
B--8--6-------------------------|
G--7--5-------------------------|
D-------------------------------|
A--------57-7-7-5---------------|
E-----------------5-------------|

Do this in a AABA pattern and the 'B' part of the pattern is moving
the above tune and cords up a semi tone. After completing this patern
the bas guitar goes into a walk and the other instruments solo. When
soloing over the A pattern you should use a c major scale and when
soloing over the B pattern you should use a G major scale.

I think this is right if you have any questions or comments please
email me ongkn3@hotmail.com
thank you
Comments