Milburn - Send In The Boys Chords & Tabs

 

Send In The Boys Chords & Tabs

Milburn Chords & Tabs

Version: 1 Type: Tab

Send In The Boys Tab

   
Milburn
Send in the Boys (Intro)


Firstly just strike the High Em Chord a couple of times as the drums build up

   Em
e|--7--
B|--8--
G|--9--
D|--9--
A|--7--
E|--7--

This is the Main Riff that is The Intro & The Verse

(Not too difficult to master)
[ Tab from: http://www.guitartabs.cc/tabs/m/milburn/send_in_the_boys_tab.html ]
e|--------------------------------------------|
B|--------------------------------------------|
G|--------------------------------------------|
D|--------------------------------------------|
A|----7-5-------7-5---------5-7-----7-5-------|
E|-5------8--5------8--5--8------5-------8----|

e|--------------------------------------------|
B|--------------------------------------------|
G|--------------------------------------------|
D|----7-5-------5-7-9--------------0----------|
A|-5------8-7------------7-5-------0----------|
E|--------------------5------8--5--0----------|