Milburn - Cheshire Cat Smile Chords & Tabs

 

Cheshire Cat Smile Chords & Tabs

Milburn Chords & Tabs

Version: 1 Type: Tab

Cheshire Cat Smile Tab

   
-------------------------------------------------------------------------------
			     LIPSTICK LICKIN' - Milburn
-------------------------------------------------------------------------------
Tabbed by: eddie_eidde
Email:eddiejux@btinternet.com

Tuning: Normal

       A           A                       B

e|-----0---------------------------------------------------------------------|
B|-----3---------------------------------------------------------------------|
G|-----3-----------------------9--9--7--7--------------7--7--6--6------------|
D|-----3-----------7--7--7--7--------------9--9--9--9------------------------|
A|-----0---------------------------------------------------------------------|
E|---------------------------------------------------------------------------|


       C#m                    B 
e|---------------------------------------------------------------------------|
B|---------------------------------------------------------------------------|
G|---------------------------------------------------------------------------|
D|-----6--6--6--6--7--7--9--9------------------------------------------------|
A|-----------------------------9--9--9--9--7--7--9--9------------------------|
E|---------------------------------------------------------------------------|


X2, 2nd time without the 1st A chord.


  Verse 1

  A           B
  Oh now your mind's not on it
  
  C#m                     B
  Pass me a book and I'll read you a sonnet, girl
  
  A               B
  Walls go up and guards come down
  
       C#m                          B                         
  He's bangin' on the door thinkin'   "Where the fuck is she

    now?"

    A5                                     F#m5     E5
e|---------------------------------------------------------------------------|
B|---------------------------------------------------------------------------|
G|---------------------------------------------------------------------------|
D|--2--2--2--2--2--2--2--2--2--2--2--2---------------------------------------|
A|--0--0--0--0--0--0--0--0--0--0--0--0-----4--4-----2--2---------------------|
E|-----------------------------------------2--2-----0--0---------------------|

 X2

  Chorus

     D5                  E5            F#m5  E5   
  So open your mouth and stick to your guns
  
         D5                 E5      F#m5  E5
  You've gotta realise that she's indifferent
  
  D5            E5          F#m5  E5
  Woah oh ah oh what's your name?
  
  D5               E5  
  Just won't learn,   here we go again

     
                   A A                     B B

e|---------------------------------------------------------------------------|
B|---------------------------------------------------------------------------|
G|-----------------------------9--9--7--7--------------7--7--6--6------------|
D|-----------------7--7--7--7--------------9--9--9--9------------------------|
A|---------------------------------------------------------------------------|
E|---------------------------------------------------------------------------|

[ Tab from: http://www.guitartabs.cc/tabs/m/milburn/cheshire_cat_smile_tab.html ]
       C#m C#m                 B B
e|---------------------------------------------------------------------------|
B|---------------------------------------------------------------------------|
G|---------------------------------------------------------------------------|
D|-----6--6--6--6--7--7--9--9------------------------------------------------|
A|-----------------------------9--9--9--9--7--7--9--9------------------------|
E|---------------------------------------------------------------------------|

  
  Verse 2

 A           B               C#m
   So it has come to an end, things haven't changed 
   
          B                      A
   You're still lookin' rough my friend
   
                      B
   Things get broken,   things come clear
   
      C#m                              B
   If you wanted to leave so much then   why are you still here? 

    A5                                     F#m5     E5
e|---------------------------------------------------------------------------|
B|---------------------------------------------------------------------------|
G|---------------------------------------------------------------------------|
D|--2--2--2--2--2--2--2--2--2--2--2--2---------------------------------------|
A|--0--0--0--0--0--0--0--0--0--0--0--0-----4--4-----2--2---------------------|
E|-----------------------------------------2--2-----0--0---------------------|

 X2

  Chorus

     D5                  E5            F#m5  E5   
  So open your mouth and stick to your guns
  
         D5                 E5      F#m5  E5
  You've gotta realise that she's indifferent
  
  D5            E5          F#m5  E5
  Woah oh ah oh what's your name?
  
  D5               E5  
  Just won't learn,   here we go again

   
  Solo

  Same Chords and Strumming Pattern as verse but use Bm instead of B

  A    Bm    C#m    Bm    A

  

  Bridge

     
      A5       E5 D5 A5       D5 E5  A5       E5 D5 A5       D5 E5
e|---------------------------------------------------------------------------|
B|---------------------------------------------------------------------------|
G|-----------------------------9--7---------------------------9--7-----------|
D|----7-7-7-7-7-7-7-7-7-7-7-7--------7-7-7-7-7-7-7-7-7-7-7-7-----------------|
A|---------------------------------------------------------------------------|
E|---------------------------------------------------------------------------|


     A5      E5  D5    A5      D5  E5   A5       E5  D5     A5       D5  E5
e|---------------------------------------------------------------------------|
B|---------------------------------------------------------------------------|
G|-----------9-9-7-7-----------7-7-6-6-----------9-9-7-7-------------7-7-6-6-|
D|---7-7-7-7-----------7-7-7-7-----------7-7-7-7------------7-7-7-7----------|
A|---------------------------------------------------------------------------|
E|---------------------------------------------------------------------------|


Chorus


     D5                  E5            F#m5  E5   
  So open your mouth and stick to your guns
  
         D5                 E5      F#m5  E5
  You've gotta realise that she's indifferent
  
  D5            E5          F#m5  E5
  Woah oh ah oh what's your name?
  
  D5               E5             A5 (let ring)
  Just won't learn,   here we go again