Mike Park - On That Stage Chords & Tabs

 

On That Stage Chords & Tabs

Mike Park Chords & Tabs

Version: 1 Type: Tab 0 ratings
1 star 2 stars 3 stars 4 stars 5 stars
comments

On That Stage Tab

http://www.mikeparkmusic.com

:VERSE 1:

E|--------------------------------------------------------------------------|
B|--------------------------------------------------------------------------|
G|--------------------------------------------------------------------------|
D|-13-13-13-13-13-----------------------------------------------------------|
A|-13-13-13-13-13---*strum-this part 15 times*------------------------------|
E|-11-11-11-11-11-----------------------------------------------------------|
 ....grade today an A for loving me

E|-------------------------------------------------------------------------|
B|-------------------------------------------------------------------------|
G|-------------------------------------------------------------------------|
D|-10--10--10-------8-8-8----------6-6-6-----------------------------------|
A|-10--10--10-------8-8-8----------6-6-6-----------------------------------|
E|-8-- 8----8-------6-6-6----------4-4-4-----------------------------------|
   you didn't mean to share your heart with me


E|---------------------------------------------------------------------------|
B|---------------------------------------------------------------------------|
G|---------------------------------------------------------------------------|
D|-13-13-13-13-13------------------------------------------------------------|
A|-13-13-13-13-13---*strum-this part 15 times*-------------------------------|
E|-11-11-11-11-11------------------------------------------------------------|
     i can't wait to grow old together


E|--------------------------------------------------------------------------|
B|--------------------------------------------------------------------------|
G|--------------------------------------------------------------------------|
D|-10--10--10-------8-8-8------------6-6-6----------------------------------|
A|-10--10--10-------8-8-8------------6-6-6----------------------------------|
E|-8-- 8----8-------6-6-6------------4-4-4----------------------------------|
   with every grey i'm more             in love with you


E|-------------------------------------------------------------------------|
B|-------------------------------------------------------------------------|
G|-------------------------------------------------------------------------|
D|--8-8-8----10-10-10--  6--6-6-----13--13--13-----------------------------|
A|--8-8-8----10-10-10----6--6-6-----13--13--13-----------------------------|
E|--6-6-6----8--8---8----4--4-4-----11--11--11-----------------------------|
   extend my hand and i hope you will too..

E|--------------------------------------------------------------------------|
B|--------------------------------------------------------------------------|
G|--------------------------------------------------------------------------|
D|--8-8-8----10-10-10--  6--6-6-----13--13--13------------------------------|
A|--8-8-8----10-10-10----6--6-6-----13--13--13------------------------------|
E|--6-6-6----8--8---8----4--4-4-----11--11--11------------------------------|
   my cultrue bleeds but i'm shakin it on threw


E|--------------------------------------------------------------------------|
B|--------------------------------------------------------------------------|
G|--------------------------------------------------------------------------|
D|--8-8-8----10-10-10--  6--6-6-----13--13--13------------------------------|
A|--8-8-8----10-10-10----6--6-6-----13--13--13------------------------------|
E|--6-6-6----8--8---8----4--4-4-----11--11--11------------------------------|
   extend my hand and i hope you will too..
E|-------------------------------------------------------------------------|
B|-------------------------------------------------------------------------|
G|-------------------------------------------------------------------------|
D|--8-8-8----10-10-10--  6--6-6-6-6-6-6-6-6-6-6-6-6-6-6--------------------|
A|--8-8-8----10-10-10----6--6-6-6-6-6-6-6-6-6-6-6-6-6-6--------------------|
E|--6-6-6----8--8---8----4--4-4-4-4-4-4-4-4-4-4-4-4-4-4--------------------|
   my cultrue bleeds but i'm shaking.....shaking it on threw

:MUSIC BREAK:
E|----------------------------------------------------|
B|----------------------------------------------------|
G|----------------------------------------------------|
D|--13-13-13----8-8----13-13-13---12-12----10-10-10---|
A|--13-13-13----8-8----13-13-13---12-12----10-10-10---|
E|--11-11-11----6-6----11-11-11---10-10----8--8--8----|

E|--------------------------------------------------|
B|--------------------------------------------------|
G|--------------------------------------------------|
D|-8-8---10-10-10---12-12---------------------------|
A|-8-8---10-10-10---12-12---------------------------|
E|-6-6---8--8--8----10-10---------------------------|
           ( Figure out the strumming patterns your self)

VERSE 2:


E|--------------------------------------------------------------------------|
B|--------------------------------------------------------------------------|
G|--------------------------------------------------------------------------|
D|-13-13-13-13-13-----------------------------------------------------------|
A|-13-13-13-13-13---*strum-this part 15 times*------------------------------|
E|-11-11-11-11-11-----------------------------------------------------------|
   and to your friend the greatest friend

E|--------------------------------------------------------------------------|
B|--------------------------------------------------------------------------|
G|--------------------------------------------------------------------------|
D|-10--10--10-------8-8-8------------6-6-6----------------------------------|
A|-10--10--10-------8-8-8------------6-6-6----------------------------------|
E|-8-- 8----8-------6-6-6------------4-4-4----------------------------------|
  the thought of breathing is so close to you


E|---------------------------------------------------------------------------|
B|---------------------------------------------------------------------------|
G|---------------------------------------------------------------------------|
D|-13-13-13-13-13------------------------------------------------------------|
A|-13-13-13-13-13---*strum-this part 15 times*-------------------------------|
E|-11-11-11-11-11------------------------------------------------------------|
   i cant wait to grow old together

E|-------------------------------------------------------------------------|
B|-------------------------------------------------------------------------|
G|-------------------------------------------------------------------------|
D|-10--10--10-------8-8-8------------6-6-6---------------------------------|
A|-10--10--10-------8-8-8------------6-6-6---------------------------------|
E|-8-- 8----8-------6-6-6------------4-4-4---------------------------------|
   with every grey i'm more             in love with you


E|-------------------------------------------------------------------------|
B|-------------------------------------------------------------------------|
G|-------------------------------------------------------------------------|
D|--8-8-8----10-10-10--  6--6-6-----13--13--13-----------------------------|
A|--8-8-8----10-10-10----6--6-6-----13--13--13-----------------------------|
E|--6-6-6----8--8---8----4- 4-4-----11--11--11-----------------------------|
   extend my hand and i hope you will too..

E|-------------------------------------------------------------------------|
B|-------------------------------------------------------------------------|
G|-------------------------------------------------------------------------|
D|--8-8-8----10-10-10--  6--6-6-----13--13--13-----------------------------|
A|--8-8-8----10-10-10----6--6-6-----13--13--13-----------------------------|
E|--6-6-6----8--8---8----4--4-4-----11--11--11-----------------------------|
   my cultrue bleeds but i'm shakin it on threw

[ Tab from: http://www.guitartabs.cc/tabs/m/mike_park/on_that_stage_tab.html ]
E|------------------------------------------------------------------------|
B|------------------------------------------------------------------------|
G|------------------------------------------------------------------------|
D|--8-8-8----10-10-10--  6--6-6-----13--13--13----------------------------|
A|--8-8-8----10-10-10----6--6-6-----13--13--13----------------------------|
E|--6-6-6----8--8---8----4--4-4-----13--13--13----------------------------|
   extend my hand and i hope you will too..
E|-------------------------------------------------------------------------|
B|-------------------------------------------------------------------------|
G|-------------------------------------------------------------------------|
D|--8-8-8----10-10-10--  6--6-6-6-6-6-6-6-6-6-6-6-6-6-6--------------------|
A|--8-8-8----10-10-10----6--6-6-6-6-6-6-6-6-6-6-6-6-6-6--------------------|
E|--6-6-6----8--8---8----4--4-4-4-4-4-4-4-4-4-4-4-4-4-4--------------------|
   my cultrue bleeds but i'm shaking.....

E|---------------------------------------------------------|
B|---------------------------------------------------------|
G|---------------------------------------------------------|
D|--13-13-13-13-13-13-13-13--10-10-10-10-10-10-------------|
A|--13-13-13-13-13-13-13-13--10-10-10-10-10-10-------------|
E|--11-11-11-11-11-11-11-11--8-8-8-8-8-8-8--8--------------|
    call you                 on that stage
E|-----------------------------------------------|
B|-----------------------------------------------|
G|-----------------------------------------------| play this last part faster
D|--8-8-8-8-8-8-8-8--6-6-6-6-6-6-6-6--|-6-6-6-6--|
A|--8-8-8-8-8-8-8-8--6-6-6-6-6-6-6-6--|-6-6-6-6--|
E|--6-6-6-6-6-6-6-6--4-4-4-4-4-4-4-4--|-4-4-4-4--|
 im wondering        about you     every day


E|---------------------------------------------------------|
B|---------------------------------------------------------|
G|---------------------------------------------------------|
D|--13-13-13-13-13-13-13-13--10-10-10-10-10-10-------------|
A|--13-13-13-13-13-13-13-13--10-10-10-10-10-10-------------|
E|--11-11-11-11-11-11-11-11--8-8-8-8-8-8-8--8--------------|
    call you                 on that stage
E|-----------------------------------------------|
B|-----------------------------------------------|
G|-----------------------------------------------| play this last part faster
D|--8-8-8-8-8-8-8-8--6-6-6-6-6-6-6-6--|-6-6-6-6--|
A|--8-8-8-8-8-8-8-8--6-6-6-6-6-6-6-6--|-6-6-6-6--|
E|--6-6-6-6-6-6-6-6--4-4-4-4-4-4-4-4--|-4-4-4-4--|
 im wondering        about you... every single day


E|----------------------------------------------------|  ____
B|----------------------------------------------------|      }
G|----------------------------------------------------|      }
D|--13-13-13--8-8--13-13-13--12-12--10-10-10----------|      }
A|--13-13-13--8-8--13-13-13--12-12--10-10-10----------|      }
E|--11-11-11--6-6--11-11-11--10-10--8--8--8-----------|      }
                                                     } play this part 2x
E|-------------------------------------------        }
B|-------------------------------------------        }
G|-------------------------------------------        }
D|--8-8--10-10-10--12-12---------------------        }
A|--8-8--10-10-10--12-12---------------------        }
E|--6-6--8--8--8---10-10---------------------     ___}

E|----------------------------------------------------------------------|
B|----------------------------------------------------------------------|
G|----------------------------------------------------------------------|
D|--8-8-8----10-10-10--  6--6-6-----13--13--13--------------------------|
A|--8-8-8----10-10-10----6--6-6-----13--13--13--------------------------|
E|--6-6-6----8--8---8----4--4-4-----11--11--11--------------------------|
   extend my hand and i hope you will too..

E|--------------------------------------------------------------------------|
B|--------------------------------------------------------------------------|
G|--------------------------------------------------------------------------|
D|--8-8-8----10-10-10--- 6--6-6-----13--13--13------------------------------|
A|--8-8-8----10-10-10----6--6-6-----13--13--13------------------------------|
E|--6-6-6----8--8---8----4--4-4-----11--11--11------------------------------|
   my cultrue bleeds but i'm shakin it on threw


E|--------------------------------------------------------------------------|
B|--------------------------------------------------------------------------|
G|--------------------------------------------------------------------------|
D|--8-8-8----10-10-10--  6--6-6-----13--13--13------------------------------|
A|--8-8-8----10-10-10----6--6-6-----13--13--13------------------------------|
E|--6-6-6----8--8---8----4--4-4-----11--11--11------------------------------|
   extend my hand and i hope you will too..
E|-------------------------------------------------------------------------|
B|-------------------------------------------------------------------------|
G|-------------------------------------------------------------------------|
D|--8-8-8----10-10-10--  6--6-6-6-6-6-6-6-6-6-6-6-6-6-6--------------------|
A|--8-8-8----10-10-10----6--6-6-6-6-6-6-6-6-6-6-6-6-6-6--------------------|
E|--6-6-6----8--8---8----4--4-4-4-4-4-4-4-4-4-4-4-4-4-4--------------------|
   my cultrue bleeds but i'm shaking.....


E|---------------------------------------------------------|
B|---------------------------------------------------------|
G|---------------------------------------------------------|
D|--13-13-13-13-13-13-13-13--10-10-10-10-10-10-------------|
A|--13-13-13-13-13-13-13-13--10-10-10-10-10-10-------------|
E|--11-11-11-11-11-11-11-11--8-8-8-8-8-8-8--8--------------|
    call you                 on that stage


E|-----------------------------------------------|
B|-----------------------------------------------|
G|-----------------------------------------------| play this last part faster
D|--8-8-8-8-8-8-8-8--6-6-6-6-6-6-6-6--|-6-6-6-6--|
A|--8-8-8-8-8-8-8-8--6-6-6-6-6-6-6-6--|-6-6-6-6--|
E|--6-6-6-6-6-6-6-6--4-4-4-4-4-4-4-4--|-4-4-4-4--|
 im wondering        about you     every day

E|---------------------------------------------------------|
B|---------------------------------------------------------|
G|---------------------------------------------------------|
D|--13-13-13-13-13-13-13-13--10-10-10-10-10-10-------------|
A|--13-13-13-13-13-13-13-13--10-10-10-10-10-10-------------|
E|--11-11-11-11-11-11-11-11--8-8-8-8-8-8-8--8--------------|
    call you                 on that stage


E|-----------------------------------------------|
B|-----------------------------------------------|
G|-----------------------------------------------| play this last part faster
D|--8-8-8-8-8-8-8-8--6-6-6-6-6-6-6-6--|-6-6-6-6--|
A|--8-8-8-8-8-8-8-8--6-6-6-6-6-6-6-6--|-6-6-6-6--|
E|--6-6-6-6-6-6-6-6--4-4-4-4-4-4-4-4--|-4-4-4-4--|
 im wondering        about you... every single day

E|-------------------------------------------|
B|-------------------------------------------|
G|-------------------------------------------|
D|--13-13-13--12-12-12-10-10-10---12-13------|
A|--13-13-13--12-12-12-10-10-10---12-13------|
E|--11-11-11--10-10-10--8-8--8----10-11------|

E|--------------------------------------------------------------------|
B|--------------------------------------------------------------------|
G|-----------------------------------*start to play slower*-----------|
D|--8-8-8-8-8-8-8-8-8-8-8-8-8-8-8---6-6-6-6-6-6-6-6-6-6-6-6-6-6-6-6---|
A|--8-8-8-8-8-8-8-8-8-8-8-8-8-8-8---6-6-6-6-6-6-6-6-6-6-6-6-6-6-6-6---|
E|--6-6-6-6-6-6-6-6-6-6-6-6-6-6-6---4-4-4-4-4-4-4-4-4-4-4-4-4-4-4-4---|

E|-X-----------|
B|-----2-------|   __
G|-1-----------|     } strum this once and let it ring.
D|-X-----------|   __}
A|-------------|
E|-------------|

-Im not to sure on the very last part...cant figure out what he plays. But the rest of
song is right. Atleast it sounds that way, if you have any corrections please post
would be awesome. This song is great and i havent seen any tabs for Mike Park. So here
it is! email me at kashia326@aol.com for comments and what not. Enjoy!
Comments