Mike Oldfield - Outcast Chords & Tabs

 

Outcast Chords & Tabs

Mike Oldfield Chords & Tabs

Version: 1 Type: Tab 0 ratings
1 star 2 stars 3 stars 4 stars 5 stars
comments

Outcast Tab

   
Mike Oldfield - Outcast.

This is not exact but its similiar, its easy to learn and sounds good.

~ Tremlo Arm.

Intro.

E --------------------------------------------------------------
B --------------------------------------------------------------
G --------------------------------------------------------------
D -7-4-4-4-4-7-7-7-7~-4-4-4-0-4-4-7-4-4-4-4-7-7-7-7-4-4-4-0-4-4-
A -4-2-2-2-2-4-4-4-4~-2-2-2-0-2-2-4-2-2-2-2-4-4-4-4-2-2-2-0-2-2-
E --------------------------------------------------------------

Play this fast. Muted.

E --------------------------------------------------------------
B -------------------------5---------------6-------------8------
G -4-4-4-4-7-4-4-4-5-5-5-5---5-5-5-7-7-7-7---7-7-7-9-9-9---9-9-9
D --------------------------------------------------------------
A --------------------------------------------------------------
E --------------------------------------------------------------
[ Tab from: http://www.guitartabs.cc/tabs/m/mike_oldfield/outcast_tab.html ]
Repeat the bit above once more then play this. This is muted fully.

E -0-0-0-4-0-0-0-4-0-0-0-5-0-0-0-5-0-0-0-7-0-0-0-4-0-0-0-4-5-4-0-0-
B -----------------------------------------------------------------
G -----------------------------------------------------------------
D -----------------------------------------------------------------
A -----------------------------------------------------------------
E -----------------------------------------------------------------

Continued...

E -0-4-0-0-0-4-0-0-0-5-0-0-0-7-7-5-7-7-----------------------------
B -----------------------------------------------------------------
G -----------------------------------------------------------------
D -----------------------------------------------------------------
A -----------------------------------------------------------------
E -----------------------------------------------------------------

Repeaet three times over.

Thats it the end of the last part is a bit different but 
its ok to learn.
Comments