Mike Ness - I Fought The Law Chords & Tabs

 

I Fought The Law Chords & Tabs

Mike Ness Chords & Tabs

Version: 1 Type: Tab 0 ratings
1 star 2 stars 3 stars 4 stars 5 stars
comments

I Fought The Law Tab

   
This is a great song being redone by a great musician
Intro :
| --2--2--3----- |
| --3--3--3--2-- |
| --2--2-----2-- |
| -----------2-- |
| --------2----- |
| --------3----- |

| -----------------------------------------------------------|
| -----------------------------------------------------------|
| -(12)/14-14-14-(12)/14-14-14--(12)/14-14-14--(12)/14-14-14-|
| -----------------------------------------------------------|
| -----------------------------------------------------------|
| -----------------------------------------------------------|
[ Tab from: http://www.guitartabs.cc/tabs/m/mike_ness/i_fought_the_law_tab.html ]
Chords: D D A G F#m D
| ----------------------------------------------------------|
| ----------------------------------------------------------|
| -(12)/14-14-14-(12)/14-14-14--14--12--11------------------|
| -------------------------------------------12-------------|
| ----------------------------------------------------------|
| ----------------------------------------------------------|
^^^^^^^^^^^
triplets

That repeats twice, then:
Verse : x4
| --2--2--3--2-- |
| --3--3--3--3-- |
| --2--2-----2-- |
| -------------- |
| --------2----- |
| --------3----- |

Chorus :
| --3--2--3--2--3--2--2-----3--?--2-- |
| --3--3--3--3--3--3--3--2--3--?--3-- |
| -----2-----2-----2--2--2-----?--2-- |
| -----------------------2-----?----- |
| --2-----2-----2-----------2--?----- |
| --3-----3-----3-----------3--?----- |

Solo :
--------------------------------14-|
------------------------12--15-----|
----------11--11/12--14------------|
----12/14--------------------------|
-14--------------------------------|
-----------------------------------|
Comments