Mike Doughty - 27 Jennifers Chords & Tabs

 

27 Jennifers Chords & Tabs

Mike Doughty Chords & Tabs

Version: 1 Type: Tab 0 ratings
1 star 2 stars 3 stars 4 stars 5 stars
comments

27 Jennifers Tab

   
27 Jennifers

(Note: the song is a quarter step sharp on the record, due to an increase in the tape 
during mastering. You can tune up a little bit if you want to play along with the record.)

Intro:
E-----------------------------------|
B-----------------------------------|
G-----------------------------------|
D-x-x-x-x-x-3-3--8-8--8-8---8-8-8---|
A-x-x-x-x-x-3-3--6-6--5-5---5-5-5---|
E-x-x-x-x-x-1-1---------------------|

E-----------------------------|
B-----------------------------|
G-----------------------------|
D-10-10--8-8--8-8---8-8-8-----|
A--8--8--6-6--5-5---5-5-5-----|
E-----------------------------|
(This second line is also the verse pattern.)

Bridge ("It's the sweet shine of...", power chords):
F C# (three times)

After "Happiness stinks up the room" (power chords):
F C Eb
[ Tab from: http://www.guitartabs.cc/tabs/m/mike_doughty/27_jennifers_tab.html ]
Break ("You might be the one...", 1:39)
E-----------------------|
B-----------------------|
G-----------------------|
D------8----8-----------|
A----6----5---------8---|
E-----------------8-----|

E-----------------------|
B-----------------------|
G-----------------------|
D--------8----8---------|
A------6----5------8----|
E--8-------------8------|

E------------------------|
B------------------------|
G------------------------|
D----------8----8--------|
A-----8--6----5-------8--|
E-5h8---------------8----|

E--------------------------|
B--------------------------|
G--------------------------|
D----------8----8--8-8-8---|
A--8-----6----5----5-5-5---|
E----8-x-------------------|

And back to the verse chords. For the ending, it's the last chord of the verse (D minor, 
guess), and then Bb (power chord) and it ends on an F power chord.
Comments