Mika - Blame It On The Girls Chords & Tabs

 

Blame It On The Girls Chords & Tabs

Mika Chords & Tabs

Version: 1 Type: Bass Tab 0 ratings
1 star 2 stars 3 stars 4 stars 5 stars
comments

Blame It On The Girls Bass Tab

Mika - Blame it on the Girls

Intro 
 
G |----------------|----------------|
D |----------------|----------------|
A |----------------|----------------|
E |4-------4-------|4-------4-------|

Verse
G |----------------|----------------|
D |----------------|----------------| x2
A |4---------------|6---------------|
E |--------2-------|--------4-------|


Bridge
G |----------------|----------------|----------------|----------------|
D |----------------|----------------|----------------|----------------|
A |4---4-----------|4---4-----------|4---4-----------|4---4---6-------|
E |--------4-------|--------4-------|--------4-------|----------------|

Chorus 1
G |----------------|----------------|
D |----------------|----------------| x2
A |4---4-----------|6---6-----------|
E |--------2/--2---|--------4/--4---|

G |----------------|----------------|
D |----------------|----------------| x2
A |4---4-----------|6---6-----------|
E |--------2---2---|--------4---4---|

Then it goes:
Verse
Bridge
Chorus 2
G |----------------|----------------|
D |----------------|----------------| x2
A |4---4-----------|6---6-----------|
E |--------2/--2---|--------4/--4---|
[ Tab from: http://www.guitartabs.cc/tabs/m/mika/blame_it_on_the_girls_btab.html ]
G |----------------|----------------|
D |----------------|----------------|
A |4---4-----------|6---6-----------|
E |--------2---2---|--------4---4---|

G |----------------|----------------|
D |----------------|----------------|
A |4---4-----------|6---6-----------|
E |--------2---2---|--------4-4h2p4-|

G |----------------|-----------5-8--|
D |----------------|----58-66-6-----|
A |4---4-----------|6-6-------------|
E |--------2-2h4p2-|----------------|

G |-----------3-6--|----------------|
D |----36-44-4-----|----------------|
A |4-4-------------|----------------|
E |----------------|----------------|

Verse

Rest 2 measures

G |----------------|----------------|
D |--------4-------|----------------|
A |4---------------|--------6-------|
E |----------------|6-----------4---|

Chorus 3
G |----------------|----------------|
D |----------------|----------------| x2
A |4---4-----------|6---6-----------|
E |--------2/--2---|--------4/--4---|

G |----------------|----------------|
D |----------------|----------------| x3
A |4---4-----------|6---6-----------|
E |--------2---2---|--------4---4---|

G |----------------|----------------|
D |----------------|----------------|
A |4---4-----------|----------------|
E |--------2---2---|----------------|
Comments