Mighty Mighty Bosstones - Royal Oil Chords & Tabs

 

Royal Oil Chords & Tabs

Mighty Mighty Bosstones Chords & Tabs

Version: 4 Type: Bass Tab 0 ratings
1 star 2 stars 3 stars 4 stars 5 stars
comments

Royal Oil Bass Tab

   
Song: Royal Oil
Artist:Mighty Mighty Bosstones
Album:Let's FAce It
BAss Tab
          TAbbed by RAfael Amaral(ramaral@net.em.com.br)
Intro:
    A                   -       Bm
G---------------------------------------------------------
D---------------------------------------------------------
A------------2--4--2-----2--2----2---4---2---0----0-0--0--
E---5-5---5-----------2-------------------------2---------

Chorus:(same as intro)
[ Tab from: http://www.guitartabs.cc/tabs/m/mighty_mighty_bosstones/royal_oil_btab_ver_4.html ]
Bridge 1(Sleep down in the Soil...)
  D       -     C#m      -  Bm
G----------------------------------------------
D------4---7-------4---7-----------------------
A--5------------4-----------2-2--4--2--0--2--0-
E----------------------------------------------

Bridge 2:
G---------------------------------------------------
D---------------------------------------------------
A--0-0---0--4--2--0--2--4----0-0---0--4--2--0--2--0-
E---------------------------------------------------

Intro
Chorus
Bridge 1
Bridge 2
Chorus
Bridge 1

Anything you wanna ask e-mail me by ramaral@net.em.com.br



Comments