Mighty Mighty Bosstones - Royal Oil Chords & Tabs

 

Royal Oil Chords & Tabs

Mighty Mighty Bosstones Chords & Tabs

Version: 1 Type: Bass Tab 0 ratings
1 star 2 stars 3 stars 4 stars 5 stars
comments

Royal Oil Bass Tab

Royal Oil
Lets Face It
Mighty Mighty Bosstones
Tabbed by Sugarbush

Intro/Verse/whatever the fuck else
G:-------------------------------------------------
D:-------------------------------------------------
A:------2-4-2----22-2-4-2-0-2-------2-4-2-0-222-22-
E:-55-5-------2----------------55-5----------------
[ Tab from: http://www.guitartabs.cc/tabs/m/mighty_mighty_bosstones/royal_oil_btab.html ]
That part before chorus
G:--------------------------
D:---4-7---4-7--------------
A:-5-----4-----22-2-4-2-0-2-
E:--------------------------

Bridge
G:-------------------------------------------------------
D:-------------------------------------------------------
A:-------4-2-0-2-4-------4-2-0-2-4/5-4/5-------4-2-0-2p0-
E:-5-5-5-----------5-5-5-----------------5-5-5-----------
Comments