Mighty Mighty Bosstones - Let Me Be Chords & Tabs

 

Let Me Be Chords & Tabs

Mighty Mighty Bosstones Chords & Tabs

Version: 1 Type: Bass Tab 0 ratings
1 star 2 stars 3 stars 4 stars 5 stars
comments

Let Me Be Bass Tab

   
-------------------------------------------------------------------------------
			     LET ME BE - Mighty Mighty Bosstones
-------------------------------------------------------------------------------

Tabbed By : Erik Frank
e-mail: erikfrank@mac.com

Tuning: normal

Intro #1
G|------------------------------------------------------------------------------|
D|------------------------------------------------------------------------------|
A|--7-------------3---------------2---------------------------------------------|
E|------------------------------------------------------------------------------|

Intro #2
G|-------------------0-0--4p2-0-0----------------------------------------------|
D|---2-2-0--------2-------------------2-0--------------------------------------|
A|----------0-3----------------------------------------------------------------|
E|-----------------------------------------------------------------------------|
[ Tab from: http://www.guitartabs.cc/tabs/m/mighty_mighty_bosstones/let_me_be_btab.html ]
Verses
G|-----------------------------------------------------------------------------|
D|----5-----5------5-----7-----------------------------------------------------|
A|--7-----3------------5-------------------------------------------------------|
E|---------------3-------------------------------------------------------------|

Choruses
G|------------------------------------------------------------------------------|
D|------------------------------------------------------------------------------|
A|--0------------------------3-----------------5--------------------------------|
E|---------3-----------0---------------3----------------------------------------|

Horn instrumental
G|------------------------------------------------------------------------------|
D|------------------------------------------------------------------------------|
A|--7-------------3---------------2---------------------------------------------|
E|------------------------------------------------------------------------------|

| /  slide up
| \  slide down
| h  hammer-on
| p  pull-off
| ~  vibrato
| +  harmonic
| x  Mute note
===============================================================================
Comments