Mighty Mighty Bosstones - Dr D Chords & Tabs

 

Dr D Chords & Tabs

Mighty Mighty Bosstones Chords & Tabs

Version: 1 Type: Bass Tab 0 ratings
1 star 2 stars 3 stars 4 stars 5 stars
comments

Dr D Bass Tab

Song: Dr. D
Artist: The Mighty Mighty Bosstones
Album: More Noise and Other Disturbances
Tabbed By: Taylor White
 
Intro:
G ---------------
D ----------0----
A ------------0-
E --3--2--------
 
Verse:
G -------------------------------------------------------------------------------------------------------------------------
D ----4--2--0------------------4--2--0-------------------4--2--0---------------------4--2--0----------------0-----
A --2--------------0--4--5--2--------------0--4--5--2------------------0--4--5--2------------------------------0-
E ---------------2------------------------2----------------------------- 2--------------------------------3--2---------
 
G -------------------------------------------------------------------------------------------------------------------------
D ----4--2--0------------------4--2--0-------------------4--2--0---------------------4--2--0----------------0-----
A --2--------------0--4--5--2--------------0--4--5--2------------------0--4--5--2------------------------------0-
E ---------------2------------------------2----------------------------- 2--------------------------------3--2---------
 
G ------------------------------------------------------------------------------------------------------------------
D ----4--2--0------------------4--2--0-------------------4--2--0---------------------4--2--0---------------
A --2--------------0--4--5--2--------------0--4--5--2------------------0--4--5--2----------------0--4--5
E ---------------2------------------------2----------------------------- 2---------------------------2-----------
 
Bridge:
G -------------------------------------------------------------------------------------
D -2-2-2-2-----------2-2-2-2-----------2-2-2-2------------2-2-2-2-4-4-4-4
A ----------2-2-2-2-----------2-2-2-2------------2-2-2-2-----------------------
E --------------------------------------------------------------------------------------
 
Chorus:
G ----------------------------------------------------------------------------------------------------
D ---------------------------------------------------------------------------------------------0-----
A --2-2------------------2-2------------------2-2------------------2-2-----------------------0--
E -------2-2-3-3-2-2-------2-2-3-3-2-2-------2-2-3-3-2-2-------2-2-----3--2-----------
 
Final Chorus:
G -----------------------------------------------------------------------------------------------------------
D ------------------------------------------------------------------------------------------0---------------
A --2-2------------------2-2------------------2-2------------------2-2---------------------0-2~~~\
E -------2-2-3-3-2-2-------2-2-3-3-2-2-------2-2-3-3-2-2-------2-2---3--2-------------------
 
Order of Song:
Intro
Verse
Bridge
Verse
Bridge
Chorus
Verse
Brige
Final Chorus

Well, that's it! If there is a mistake I didn't catch that you wanna tell me, or if you wanna thank me for
finally tabbing this totally awesome song, e-mail me at SubwayJo@aol.com

[ Tab from: http://www.guitartabs.cc/tabs/m/mighty_mighty_bosstones/dr_d_btab.html ]
Comments