Mighty Mighty Bosstones - Devils Night Out Chords & Tabs

 

Devils Night Out Chords & Tabs

Mighty Mighty Bosstones Chords & Tabs

Version: 2 Type: Bass Tab 0 ratings
1 star 2 stars 3 stars 4 stars 5 stars
comments

Devils Night Out Bass Tab

Song: Devil's Night Out
Band: Mighty Mighty BossToneS
Album: Devil's Night Out
tabbed by: Adam Marish


Intro/Played In Other Parts Too

G:-----------------------
D:-----------------------
A:-77--7-----------------
E:----5---7-6-5--7-6-5---


Verse
[ Tab from: http://www.guitartabs.cc/tabs/m/mighty_mighty_bosstones/devils_night_out_btab_ver_2.html ]
G:------------------------------
D:------------------------------
A:--------------0-22--0-2-0-----
E:-0-22--0-2-0------------------

Ska Chorus

G:-------------------22-44-----------------44-22----------
D:-------22-44-00-44--------------22-44-00-------44-------
A:-00-44--------------------00-44-------------------------
E:--------------------------------------------------------

Well There You Go...A BossToneS Class!

Adam Marish
The Royal Noise Brigade - Awesome Pennsylvania Ska/Swing
www.come.to/royalnoisebrigade
Comments