Mighty Mighty Bosstones - Chasing The Sun Away Chords & Tabs

 

Chasing The Sun Away Chords & Tabs

Mighty Mighty Bosstones Chords & Tabs

Version: 1 Type: Tab 0 ratings
1 star 2 stars 3 stars 4 stars 5 stars
comments

Chasing The Sun Away Tab

   
Artist: The Mighty Mighty Bosstones
Song: Chasing The Sun Away
Album: A Jacknife To A Swan
Tabbed By: Ade Percival
E-Mail: internetdatingsuperstud405@hotmail.com

Intro/Verse (Ska Strums)
e|-33333-33333-|
B|-33333-55555-|
G|-44444-55555-|
D|-55555-------|
A|-------------|
E|-------------|

Pre-Chorus(Pt1)
e|-------------------|
B|-------------------|
G|----------55555555-|
D|-77777777-55555555-|
A|-77777777-33333333-|
E|-55555555----------|

Pre-Chorus(Pt2)
e|--------------------------|
B|-8-7-5-3-1-0h1p0----0h1p0-|
G|-----------------0h2------|
D|--------------------------|
A|--------------------------|
E|--------------------------|

Then back to part one again
[ Tab from: http://www.guitartabs.cc/tabs/m/mighty_mighty_bosstones/chasing_the_sun_away_tab.html ]
Chorus
e|-----------------------|
B|-----------------------|
G|---------------555-777-|
D|-5-5-----------555-777-|
A|-5-5-3-5-7-5-3-333-555-|
E|-3-3-------------------|

Middle (On the 4th time strum the G once)
e|----------|
B|----------|
G|-----55-3-|
D|-5-5-55-3-|
A|-5-5-33-1-|
E|-3-3------|

After this just play the verse then theres a small breakdown where, again you just play 
verse but with a different strum pattern. But apart from that, thats basically it.

Intro(x2)
Verse(x4)
Pre-Chorus(Pt1)(x1)
Pre-Chorus(Pt2)(x1)
Pre-Chorus(Pt1)(x1)
Chorus(x2)
Intro(x2)
Verse(x4)
Pre-Chorus(Pt1)(x1)
Verse(x1)
Pre-Chorus(x1)
Chorus(x4)
Pre-Chorus(x1)
Middle(x4)(On the 4th time just strum the G once)
Verse(x7)
Pre-Chorus(x1)
Chorus(x4)
End On G

Thats everything but if anyone could tab 'Someday I Suppose' then that would be great. 
next song I'm going to post is 'Hope I Never Loose My Wallet'.
Comments