Mieka Pauley - Run Chords & Tabs

 

Run Chords & Tabs

Mieka Pauley Chords & Tabs

Version: 1 Type: Tab 0 ratings
1 star 2 stars 3 stars 4 stars 5 stars
comments

Run Tab

Song      : Run
Artist    : Mieka Pauley
Tabbed By : Jo Lefebure (whipy@hotmail.com)

Standard tuning, capo 4th fret.

(1) Verses:
e|--0-----------------------0--|
b|--0-----------------------2--|
g|--0-----------------------2--|
d|--2-----------------------2--|
a|--2-----------------------0--|
e|--0--------------------------|
    You've had enough, it's rough I know

(2) Chorus:
e|--0---------------------3--|
b|--0-----3---------------3--|
g|--0-----2---------------0--|
d|--2-----0---------------0--|
a|--2-----x---------------2--|
e|--0-----2---------------3--|
Run, run, far beneath the sun
[ Tab from: http://www.guitartabs.cc/tabs/m/mieka_pauley/run_tab.html ]
e|----0------------------0------------0----------------0--|
b|----0------------------0------------0----------------0--|
g|----2------------------2------------2----------------2--|
d|----2------------------2------------2----------------0--|
a|----0---------------4--4---------3--3-------------2--2--|
e|--------------------------------------------------------|
Run E-lijah drop your gun, son the world has got no armor on

(3) Bridge:
e|-----------------------------------------------|
b|----------------------3---------------------2--|
g|--0-------------------2---------------------2--|
d|--2-------------------0---------------------2--|
a|--2-------------------x---------------------0--|
e|--0-------------------2------------------------|
       You stand at the mirror, you watch the crash

e|---------0------------------------|
b|---------0------------------------|
g|---------2------------------------|
d|---------0------------------------|
a|---------2------------------------|
e|----------------------------------|
Now you're standing on broken...



Order of play:

Start with strumming an Em
(1) x4
(2) x2
(1) x4
(2) x2
(3) x2
(2) x1
(1) x4
(2) x2
(3) x2
(2) x4
Gently strum down an Em for the outro (when she sings 'Just run').
Comments