Midtown - Knew It All Along Chords & Tabs

 

Knew It All Along Chords & Tabs

Midtown Chords & Tabs

Version: 1 Type: Tab 0 ratings
1 star 2 stars 3 stars 4 stars 5 stars
comments

Knew It All Along Tab

Author/Artist: Midtown
Title: Knew It All Along
Album: Save the World, Lose the Girl
Transcribed by: Edoardo Felici
Email: edoardofelici@hotmail.com

#intro#
Guitar 1 (play 3x)
-|----------------------------------------------------------------|-----------
-|----------------------------------------------------------------|-----------
-|-14-14-14-14-14-14-14-14---14-14-14--14-14-14-14-14-14-14-14-14-|-13-13-13--
-|-14-14-14-14-14-14-14-14---14-14-14--14-14-14-14-14-14-14-14-14-|-14-14-14--
-|----------------------------------------------------------------|-----------
-|----------------------------------------------------------Guitar 2:--17/5---
                                                                              
Guitar 2 (play 2x)
-|---------------------------------------|--12-12-12-12-9-9-10-10-----|-------
-|---------------------------------------|----------------------------|-------
-|---------------------------------7-7-7-|-little riff in background--|-------
-|7-7-xxx-7-7--9-9-9--4-4-xxx-4-4--7-7-7-|---maybe guitar 3-----------|-------
-|7-7-xxx-7-7--9-9-9--4-4-xxx-4-4--5-5-5-|----------------------------|-------
-|5-5-xxx-5-5--7-7-7--2-2-xxx-2-2--------|----------------------------|-------
                                                                              
#verse#
Guitar 1 and 2
-|--------------------------------------|-------------------------------------
-|--------------------------------------|-------------------------------------
-|--------------------------------------|-------------------------------------
-|-7--7/9--9/4--4-7----7--7/9--9/4--4-7-|-------------------------------------
-|-7--7/9--9/4--4-7----7--7/9--9/4--4-7-|-------------------------------------
-|-5--5/7--7/2--2-5----5--5/7--7/2--2-5-|-------------------------------------
  You can say I...                                                          

-|-------------------------------------------------|--------------------------
-|-------------------------------------------------|--------------------------
-|-------------------------------------xx-7-xx-7-7-|--------------------------
-|-xx-7-xx-7-7-xx-9-xx-9-9-xx-4-xx-4-4-xx-7-xx-7-7-|-xxxx-7-xxxx-9-xxxx-4x7x7-
-|-xx-7-xx-7-7-xx-9-xx-9-9-xx-4-xx-4-4-xx-5-xx-5-5-|-xxxx-7-xxxx-9-xxxx-4x7x7-
-|-xx-5-xx-5-5-xx-7-xx-7-7-xx-2-xx-2-2-------------|-xxxx-5-xxxx-7-xxxx-2x5x5-
                                                                              
#pre-chorus#
Guitar 1 and 2
-|------------------------14---------------------------------------|----------
-|------------------14-------14------------------------------------|----------
-|-----------7---14----14-------14------------7--7777777777777777--|----------
-|-4--4-2--2-7----------------------4--4-2--2-7--7777777777777777--|----------
-|-4--4-2--2-5----------------------4--4-2--2-5--5555555555555555--|----------
-|-2--2-----------------------------2--2---------------------------|----------
                                                                              
#chorus#
Guitar 1 and 2
-|----------------------------------------------------------------------|-----
-|----------------------------------------------------------------------|-----
-|-----9-9-6-6-7-7--------------7-7------9-9-6-6-7-7--4-4-4-4--7-7-7-7--|-----
-|-7-7-9-9-6-6-7-7--7-7-2-2-4-4-7-7--7-7-9-9-6-6-7-7--4-4-4-4--7-7-7-7--|-----
-|-7-7-7-7-4-4-5-5--7-7-2-2-4-4-5-5--7-7-7-7-4-4-5-5--2-2-2-2--5-5-5-5--|-----
-|-5-5--------------5-5-----2-2------5-5--------------------------------|-----
  I know it's not easy... 

Play #intro# in between                                                    
[ Tab from: http://www.guitartabs.cc/tabs/m/midtown/knew_it_all_along_tab.html ]
#verse 2#
-|----------------------------------------------------------------------|-----
-|----------------------------------------------------------------------|-----
-|----------------------------------------------------------------------|-----
-|-|bass line|--------------------------7-7---------------4-4-------7-7-|-----
-|----------------------------55555555--7-7---------------4-4-------7-7-|-----
-|-55555555-77777777-22222222-----------5-5-55555-7777777-2-2-22222-5-5-|-----
  You can say I...                                                          

-|---------------------------------------------------------------------|------
-|---------------------------------------------------------------------|------
-|-------------------------7xxxxxxx------------------------------------|------
-|-7xxxxxxx9xxxxxxx4xxxxxxx7xxxxxxx-xxxx-7-xxxx-9-xxxx-4-xx-7-7-7-7-7--|------
-|-7xxxxxxx9xxxxxxx4xxxxxxx5xxxxxxx-xxxx-5-xxxx-9-xxxx-4-xx-7-7-7-7-7--|------
-|-5xxxxxxx7xxxxxxx2xxxxxxx---------xxxx-5-xxxx-7-xxxx-2-xx-5-5-5-5-5--|------
  Stop breathing...                                                           

Play #chorus# in between

#bridge#
Guitar 1 (not so sure about this bit, email me for corrections)
-|---------------------------------------------------5p3---5p3----------------
-|-------------------5p3-2-5p3-2-----6-----6-------3-----6-----6--------------
-|---6p4---6p4-----2---------------7---8p7---8p7------------------------------
-|-4-----7-----7--------------------------------------------------------------
-|----------------------------------------------------------------------------
-|----------------------------------------------------------------------------
                                          Guitar 2 during previous bit,                                    
						        Gtr. 1+2 before the end:
---------------------5p3---5p3---|--------------------------------------------
-------------------3-----6-----6-|--------------------------------------------
-----6p4---6p4-------------------|------------xx-7-xx-77----------------------
---4-----7-----7-----------------|-xx-9-xx-99-xx-7-xx-77-xx-4-xx-44-xx-7-xx77-
---------------------------------|-xx-9-xx-99-xx-5-xx-55-xx-4-xx-44-xx-7-xx77-
---------------------------------|-xx-7-xx-77------------xx-2-xx-22-xx-5-xx55-
                                                                              

#end# (play 4x)
-|--------------------|-------------------------------------------------------
-|--------------------|-------------------------------------------------------
-|-----------7-7--4-4-|-------------------------------------------------------
-|-4-4--7-7--7-7--4-4-|-------------------------------------------------------
-|-4-4--7-7--5-5--2-2-|-------------------------------------------------------
-|-2-2--5-5-----------|-------------------------------------------------------
  Knew it all along...            

Lyrics

you can say i knew it all along that you were all i wanted
to know the pain has made you grow strong the scars inside
have made you beautiful
"stop breathing for me"
you said it's your right to shun dependence
and you shun and you're scared to accept someone
to share your regrets when you're aching you go it alone
when you want to you take what you need to make you whole
i know it's not easy i know i can't feel through
what you have been and trust don't come easy
'cause to trust is to depend and who wants to give up that part of them
you know you can have it if you want to i'll find you unrelated
cultivated when you wake up incubated in me
you're free to leave if you knew it all along          
Comments