Midtown - Just Rock And Roll Chords & Tabs

 

Just Rock And Roll Chords & Tabs

Midtown Chords & Tabs

Version: 3 Type: Bass Tab 0 ratings
1 star 2 stars 3 stars 4 stars 5 stars
comments

Just Rock And Roll Bass Tab

   
This Is a real good song. The other tab is a little off so o decided to give it a shot.

*= let it ring

After Guitar plays 1 time through 
play this

G:------------------------
D:------------------------
A:------33---55-----------     3x
E:-11-------------55---66-

After that play

E:-6666-8888-

G:----------------------------------
D:----------------------------------
A:------3333-5555-------------------
E:-1111-----------5555-6666-8888----

Verse 1

G:-------------------------------------------
D:-------------------------------------------
A:----------33333333-5555--------------------
E:-11111111---------------5555-6666-8888-----

Chorus

G:-------------------------------------------
D:-------------------------------------------
A:-----------33333333----------11111111------
E:-111111111----------33333333---------------

Repeat Intro,  and at the end play this

E:-66666666-88888888

Verse 2

G:-----------------------------------
D:--------0-0------------------------
A:----3*-----0-01-13-3---------------
E:-1*-----------------1--------------
[ Tab from: http://www.guitartabs.cc/tabs/m/midtown/just_rock_and_roll_btab_ver_3.html ]
G:-----------------------
D:-----------------------
A:-5555------------------
E:------5555-6666-8888---

Go Back and Play the Chorus

Bridge

G:-------------------------------------------------------------------------
D:-------------------------------------------------------------------------
A:-5555555555555555--------------------------------------------------------
E:------------------6666666666666666-4-5555-66666666-77777777-66666666-----

G:------------------------------------------------------------------------
D:------------------------------------------------------------------------
A:-5555555555555555-------------------------------------------------------
E:------------------6666666666666666-4-5555-6666-6-6-6-77777777-66666666--

G:-----------------
D:-----------------
A:-----------------
E:-4-5555-66666666-

G:---------------------------------------
D:---------------------------------------
A:-------------------11111111-33333333---
E:-11111111-33333333---------------------

Then Play the Intro Again.

Well there u r. This pretty much all correct. Please Rate This Tab
Comments