Midtown - Fraying All The Ends Chords & Tabs

 

Fraying All The Ends Chords & Tabs

Midtown Chords & Tabs

Version: 1 Type: Tab 0 ratings
1 star 2 stars 3 stars 4 stars 5 stars
comments

Fraying All The Ends Tab

Author/Artist: Midtown
Title: Fraying All The Ends
Album: Save the World, Lose the Girl
Transcribed by: Edoardo Felici
Email: edoardofelici@hotmail.com

Listen carefully to the song to figure out the strumming. 
NOTE: Lyrics to not match the tab, they are there so you don't lose track.

				    |repeat once|
----------|-------------------------------------|-----------------------------
----------|-------------------------------------|-----------------------------
----------|---------7-7--7-7-7-7-------5-5------|-----------------------------
--2-2-2-2-|2-2-2-2--7-7--7-7-7-7--5-5--5-5--2-2-|-----------------------------
--2-2-2-2-|2-2-2-2--5-5--5-5-5-5--5-5--3-3--2-2-|-----------------------------
--3-3-0-0-|0-0-0-0----------------3-3-------0-0-|-----------------------------
           Fraying all the ends...                                            

-----------------------------------|------------------------------|-----------
-----------------------------------|------------------------------|-----------
-------------------7-7-7-7-7-7-7-7-|------5-5--7x7x7x7--5x5x5x5---|-----------
--2-2-2-2-2-2-2-2--7-7-7-7-7-7-7-7-|-5-5--5-5--9x9x9x9--5x5x5x5---|-----------
--2-2-2-2-2-2-2-2--5-5-5-5-5-5-5-5-|-5-5--3-3--9x9x9x9--3x3x3x3---|-----------
--0-0-0-0-0-0-0-0------------------|-3-3--------------------------|-----------
 ...everything you want...           I can see it...                          

------------------------------------------------------------------------------
-------------------------------------------------------77777777---------------
-----------------7x7x7x7--5x5x5x5------------77777777--55555555---------------
--xxxx-5-xxxx-2--7x7x7x7--5x5x5x5--5-5--2-2--77777777--77777777---------------
--xxxx-5-xxxx-2--9x9x9x9--3x3x3x3--5-5--2-2--55555555--55555555---------------
--xxxx-3-xxxx-0--------------------3-3--0-0-----------------------------------
 you're telling lies...                                                       
[ Tab from: http://www.guitartabs.cc/tabs/m/midtown/fraying_all_the_ends_tab.html ]
				|repeat once|
-|------------------------------------------|-----------------------|---------
-|------------------------------------------|-----------------------|---------
-|--------------7-7--7-7-7-7-------5-5------|--------7----7---------|---------
-|2-2--2-2-2-2--7-7--7-7-7-7--5-5--5-5--2-2-|-2----2-7----7---------|---------
-|2-2--2-2-2-2--5-5--5-5-5-5--5-5--3-3--2-2-|-2----2-5----5---------|---------
-|0-0--0-0-0-0----------------3-3-------0-0-|-0----0----------------|---------
 ...fraying all the ends...                  everything you want...           

--------------------------------------------------------------------------|---
--------------------------------------------------------------------------|---
----5--7x7x7x7--5x5x5x5-------------7x7x7x7--5x5x5x5------------7-7-7-7---|---
-5--5--9x9x9x9--5x5x5x5--xxxx-5--2--9x9x9x9--5x5x5x5--5-5--2-2--7-7-7-7---|---
-5--3--9x9x9x9--3x3x3x3--xxxx-5--2--9x9x9x9--3x3x3x3--5-5--2-2--5-5-5-5---|---
-3-----------------------xxxx-3--0--------------------3-3--0-0------------|---
 I can see it...                                  ...says what you need...    

---------------------------|--------------------------------let ring|--------
---------------------------|-------------------------------4--------|--------
-----------7-7-7-7---------|-----------7-7--4-4--55555555--5--------|--------
-5-5--2-2--7-7-7-7---------|-5-5--2-2--7-7--4-4--55555555--5--------|--------
-5-5--2-2--5-5-5-5---------|-5-5--2-2--5-5--2-2--33333333--3--------|--------
-3-3--0-0------------------|-3-3--0-0-------------------------------|--------
 ...who speaks the words...  say what you want to hear...                     

-------------------let ring|--------------------------------------------------
---------------xx-8--------|--------------------------------------------------
---------------xx-9--------|--------------------------------------------------
---------------xx-9--------|--------------------------------------------------
---------------xx-7--------|--------------------------------------------------
---------------------------|--------------------------------------------------
 why can't you be strong?                                                     

Lyrics

fraying all the ends 
you are the last one
who can recognize his friends
and nothing ever changes
you're always exchanging
peace of mind for everything
you want everything.
you want it all
i can see it in your eyes
i can see right through you
there's nothing to you
you conjure lies
and you'll surround yourself with everyone
who says what you need to feel
all right everyone
who speaks the words
that make you perpetually contrived
they say what you want to hear
say what you want to hear
what you want to
why can't you be strong?
Comments