Midtown - Empty Like The Ocean Chords & Tabs

 

Empty Like The Ocean Chords & Tabs

Midtown Chords & Tabs

Version: 1 Type: Tab 0 ratings
1 star 2 stars 3 stars 4 stars 5 stars
comments

Empty Like The Ocean Tab

"Empty Like the Ocean" by Midtown
from Forget What You Know


Tabbed by: Jodie
Email: sharpdisaster@yahoo.com



Tuning: Standard


Intro and Verse: (repeat as needed)
e|---------------------------------------------------|
B|-----5-------5-----------5--------5----------------|
G|---2-----2-----2-------2-----2------2--------------|
D|-4----44---4---------4----44---4-------------------|
A|---------------------------------------------------|
E|---------------------------------------------------|

Intro chords                        Verse             @ poisons, pointless
e|--------------------------------------------------------------------------|
B|--------------------------------------------------------------------------|
G|---------------6-------------------------------------4-4------------------|
D|--4------7-----6------------------4------------------4-4------------------|
A|--4------7-----4-x8---------------4------------------2-2------------------|
E|--2-x16--5-x8---------------------2---------------------------------------|

Chorus (i dont care..) x3, 4th time end with
e|------------------------------------------------------|
B|------------------------------------------------------|
G|-4-----6----------------------------------------------|
D|-4-----6-----7---------------------------4------------|
A|-2-x8--4-x8--7---------------------------4------------|
E|-------------5-x16-----------------------2-x16--------|
[ Tab from: http://www.guitartabs.cc/tabs/m/midtown/empty_like_the_ocean_tab.html ]
Riff1 x2 (i just want to fill you with regret)
e|------------------------------------------------------|
B|------------------------------------------------------|
G|------------------------------------------------------|
D|--4---2-----------------------------------------------|
A|--------4---4-2---4-5--5p4----------------------------|
E|------------------------------------------------------|

Riff2                          Riff3
e|----------------------------------------------------------------------|
B|-----------------------------(---5)-----------------------------------|
G|-----------------------------(-2--)----4-6-4--4-6-4--4-6-4-6--7-6-4-2-|
D|---4--6-7--9--11--14---------(4-4-)-----------------------------------|
A|----------------------------------------------------------------------|
E|----------------------------------------------------------------------|

Riff4
e|-------------------------------|
B|-------------------------------|
G|-------------------------------|
D|-------------------------------|
A|-------------------------------|
E|---7-5-7-5--4------------------|





LYRICS


Make my body motion, yeah the night is young
Open like the ocean, cold and numb
Dance until the sweat forms on your face
It won't take long to flush the poisons

I don't care where you come from
If it's awful there
All of us are alone
I forget where I come from
And I don't care

So what's wrong? I think too much
I don't want to fuck you, I don't want to touch
I just want to fill you with regret
I've said it all before, it's pointless

I don't care where you come from
If it's awful there
All of us are alone
I forget where I come from
What I'm doing here
It's so redundant

I don't care where you come from
If it's awful there
We are all alone
I forget where I come from
I don't care

Dance until the sweat forms on your face.
(ooh..ooh ooh..ooh ooh..ooh..)

I don't care where you come from
If it's awful there
All of us are alone
I forget where I come from
What I'm doing here
It's so redundant

I don't care where you come from
If it's awful there
We are all alone
I forget where I come from
I DON'T CARE.

And I don't care.

Dance until the sweat forms on your face.
Comments