Midtown - Battle Of The Sexes Theme Chords & Tabs

 

Battle Of The Sexes Theme Chords & Tabs

Midtown Chords & Tabs

Version: 1 Type: Bass Tab 0 ratings
1 star 2 stars 3 stars 4 stars 5 stars
comments

Battle Of The Sexes Theme Bass Tab

   
-------------------------------------------------------------------------------
      Real World/Road Rules Battle Of The Sexes Theme - Midtown
-------------------------------------------------------------------------------

Tabbed By : Zero is great man.
Tuning: EADG

I see them playing this song all the time whenever Battle of the sexes comes
on, and it's a pretty cool song, short, but it's still a cool song.

Intro/Verse 1: "Come on, let go, all those agrivations..."
G|--------------------------------------------------------------|
D|--------------------------------------------------------------|
A|-7-7----2-2-----4-4--------------7-7----2-2----4-4------------|(x1.5)
E|-----------------------5-5-5-5------------------------5-5-5-5-|
                                                       |--p.m.--|

Interlude: "In years they'll say, what happened to you?"
G|----------------------------------------------------------------------|
D|----------------------------------------------------------------------|
A|------------------11-11-11-11-11-11-11-11--12-12-12-12-12-12-12-12-12-|
E|-9-9-9-9-9-9-9-9------------------------------------------------------|

Guitar solo:
G|------------------------------------------------------|
D|------------------------------------------------------|
A|-7-7-7-7--2-2-2-2--4-4-4-4----------------------------|
E|----------------------------5-5--7-7-7-7-7-7-7-7-7-7-7|

Verse 2: "You know you'll never lose, what was once inside you..."
G|-------------------------------------|
D|-------------------------------------|
A|-------------------2-2-2-2-----------|(x4)
E|-5-5-5-5--0-0-0-0-----------0-0-0-0--|

"We deserve it"
G|----------|
D|----------|
A|-2-2------|
E|------0-0-|
[ Tab from: http://www.guitartabs.cc/tabs/m/midtown/battle_of_the_sexes_theme_btab.html ]
"And your still around, so nothing is dead...)
G|------------------|-------------------|
D|------------------|-------------------|
A|------------------|-2-2-2-2-----------|(Play the whole thing, then the first)
E|-5-5-5-5--0-0-0-0-|----------0-0-0-0--|

"We deserve it....(we deserve it)
G|-------------------------------------|
D|-------------------------------------|
A|-2-2-2-2-2-2-2-2-2-2-2-2-2-2-2-2-2-2-|
E|-------------------------------------|

"Come on, let go, all those agrivations."
G|-----|
D|-----|
A|-7-7-|
E|-----|

"Come on, let go, all those agrivations."
G|-----------------|
D|-----------------|
A|-----------------|
E|-0-*-*-*-*-*-*-*-|

"Come on, and let go, come on and let go.."
G|-----------------------------------------|
D|-----------------------------------------|
A|-----------------------------------------|
E|-0-0-0-0-0-0-0-0-0-0-0-0-0-0-0-0-0-0-0-0-|
  |----------------p.m.-------------------|

"Your not fooling anyone..."
G|-----------------------------|
D|-----------------------------|
A|-4-*-*-*---------------------|
E|----------4-*-*-*--5-*-*-*-*-|

Lyrics

Come on, Let go, 
All those agrivations,
You don't fool anyone.
Come on, Let go,
If you want to move on...

In years they'll say,
What happened to you?

[Guitar solo]

You know you'll never lose,
What was once inside you.
Your burning down,
The bridges you cross.
And your still around,
So nothing is dead,
Just let go,
We deserve it.

And your still around,
So nothing is dead.
Just let go,
We deserve it...(we deserve it)

Come on, let go,
All those agrivations.
Come on, let go,
All those agrivations.
Come on and let go,
Come on and let go,

Your not fooling anyone...


| /  slide up
| \  slide down
| h  hammer-on
| p  pull-off
| ~  vibrato
| +  harmonic
| x  Mute note
| p.m  Palm mute
| *  let ring

================================================================================
Comments