Midtown - Another Boy Chords & Tabs

 

Another Boy Chords & Tabs

Midtown Chords & Tabs

Version: 1 Type: Tab 0 ratings
1 star 2 stars 3 stars 4 stars 5 stars
comments

Another Boy Tab

   
pm- palm mute
~ - let chord ring
x - muted string
/ - slide down

Intro:
e|-------------|
B|-------------|
G|-555555555-5-|
D|-xxxxxxxxx-x-
A|-333333333-3-|
E|-------------|

Verse
e|------------------------------------------|
B|------------------------------------------|
G|-555555555555-----------------------------|
D|-555555555555-77777777-7-5-3333333-555555-|
A|-333333333333-77777777-7-5-3333333-555555-|
E|--------------55555555-5-3-1111111-333333-|

cont'D
e|-----------------------------------------------|
B|-----------------------------------------------|
G|-55xxx55xxx55xxx55-----------------------------|
D|-55xxx55xxx55xxx55-77777777-7-5-3333333-555555-|
A|-33xxx33xxx33xxx33-77777777-7-5-3333333-555555-|
E|-------------------55555555-5-3-1111111-333333-|
[ Tab from: http://www.guitartabs.cc/tabs/m/midtown/another_boy_tab.html ]
Bridge
e|------------------------------------------|
B|------------------------------------------|
G|-5555/101010101010-55555555---------------|
D|-5555/101010101010-55555555-333333-555555-|
A|-3333/8 8 8 8 8 8 -33333333-333333-555555-|
E|----------------------------111111-333333-|

cont'D
e|------------------------|
B|------------------------|
G|-5-555555555------------|
D|-5-555555555-3~3/5-5~---|
A|-3-333333333-3~3/5-5~---|
E|-------------1~1/3-3~---|
     pm.......

Outro (Guitar 1)
e|----------------------------|
B|----------------------------|
G|-5555-55-5555-55-5555-55-5~-|
D|-5555-55-5555-55-5555-55-5~-|
A|-3333-33-3333-33-3333-33-3~-|
E|----------------------------|

Outro (Guitar 2)
e|----------------------------|
B|----------------------------|
G|-9999-99-9999-99-9999-99-9~-|
D|-xxxx-xx-xxxx-xx-xxxx-xx-x -|
A|-7777-77-7777-77-7777-77-7~-|
E|----------------------------|


Tabbed By: Livergood a.k.a. xCKYx666xHIMx
Comments