Midnight Oil - Beds Are Burning Chords & Tabs

 

Beds Are Burning Chords & Tabs

Midnight Oil Chords & Tabs

Version: 2 Type: Bass Tab 0 ratings
1 star 2 stars 3 stars 4 stars 5 stars
comments

Beds Are Burning Bass Tab

Song: Beds Are Burning
Band: Midnight Oil
Tabber: jordash - ktulu@ultra.net.au


INTRO:

|---------|---------|-----|
|---------|---------|-----|
|---------|---------|-----|
|-0-3-5-r-|-r-r-r-r-|-r-r-|
  1 2 3 4   1 2 3 4   1 2

VERSE 1:

|------------------|------------------|
|*-----------------|-----------------*|
|*-----------------|-----------------*|
|--0-0-3-5-0-0-3-5-|-0-0-3-5-0-0-5-3--|
   1 & 2 & 3 & 4 &   1 & 2 & 3 & 4 &

|-----------------|-----------------|---------|-----|
|-----------------|-----------------|---------|-----|
|-----------------|-----------------|---------|-----|
|-2-2-2-2-2-2-2-2-|-2-2-2-2-2-2-2-2-|-0-3-5-r-|-r-r-|
  1 & 2 & 3 & 4 &   1 & 2 & 3 & 4 &   1 2 3 4   1 2

CHORUS:

|------------------|-----------------|-----------------|
|*-----------------|-----------------|-----------------|
|*-----------------|-3-3-3-3-3-3-3-3-|-----------------|
|--0-0-0-0-0-0-0-0-|-----------------|-3-3-3-3-3-3-3-3-|
   1 & 2 & 3 & 4 &   1 & 2 & 3 & 4 &   1 & 2 & 3 & 4 &

|-----------------|-----------------|-----------------|
|-----------------|-----------------|-----------------|
|-----------------|-----------------|-3-3-3-3-3-3-3-3-|
|-3-3-3-3-3-3-3-3-|-0-0-0-0-0-0-0-0-|-----------------|
  1 & 2 & 3 & 4 &   1 & 2 & 3 & 4 &   1 & 2 & 3 & 4 &

|-----------------|------------------|
|-----------------|-----------------*|
|-5-5-5-5-5-5-5-5-|-5-5-5-5-6-6-6-6-*|
|-----------------|------------------|
  1 & 2 & 3 & 4 &   1 & 2 & 3 & 4 &

|-----------------|-----------------|-----------------|
|-----------------|-----------------|-----------------|
|-----------------|-3-3-3-3-3-3-3-3-|-----------------|
|-0-0-0-0-0-0-0-0-|-----------------|-3-3-3-3-3-3-3-3-|
  1 & 2 & 3 & 4 &   1 & 2 & 3 & 4 &   1 & 2 & 3 & 4 &

|-----------------|-----------------|
|-----------------|-----------------|
|-5-5-5-5-5-5-5-5-|-5-5-5-5-5-5-5-5-|
|-----------------|-----------------|
  1 & 2 & 3 & 4 &   1 & 2 & 3 & 4 &

VERSE 2: 

|------------------|------------------|
|*-----------------|-----------------*|
|*-----------------|-----------------*|
|--0-0-3-5-0-0-3-5-|-0-0-3-5-0-0-5-3--|
   1 & 2 & 3 & 4 &   1 & 2 & 3 & 4 &

|-----------------|---------------|---------|---------|
|-----------------|---------------|---------|---------|
|-----------------|-------------.-|---------|---------|
|-0-0-3-5-0-0-5-3-|-0-0-3-5-0-0-5-|-r-r-r-r-|-0-3-5-r-|
  1 & 2 & 3 & 4 &   1 & 2 & 3 & 4   1 2 3 4   1 2 3 4
[ Tab from: http://www.guitartabs.cc/tabs/m/midnight_oil/beds_are_burning_btab_ver_2.html ]
|---------|-----|
|---------|-----|
|---------|-----|
|-r-r-r-r-|-r-r-|
  1 2 3 4   1 2

CHORUS 2:

|------------------|-----------------|-----------------|
|*-----------------|-----------------|-----------------|
|*-----------------|-3-3-3-3-3-3-3-3-|-----------------|
|--0-0-0-0-0-0-0-0-|-----------------|-3-3-3-3-3-3-3-3-|
   1 & 2 & 3 & 4 &   1 & 2 & 3 & 4 &   1 & 2 & 3 & 4 &

|-----------------|-----------------|-----------------|
|-----------------|-----------------|-----------------|
|-----------------|-----------------|-3-3-3-3-3-3-3-3-|
|-3-3-3-3-3-3-3-3-|-0-0-0-0-0-0-0-0-|-----------------|
  1 & 2 & 3 & 4 &   1 & 2 & 3 & 4 &   1 & 2 & 3 & 4 &

|-----------------|------------------|
|-----------------|-----------------*|
|-5-5-5-5-5-5-5-5-|-5-5-5-5-6-6-6-6-*|
|-----------------|------------------|
  1 & 2 & 3 & 4 &   1 & 2 & 3 & 4 &

|------------------|-----------------|-----------------|
|*-----------------|-----------------|-----------------|
|*-----------------|-3-3-3-3-3-3-3-3-|-----------------|
|--0-0-0-0-0-0-0-0-|-----------------|-3-3-3-3-3-3-3-3-|
   1 & 2 & 3 & 4 &   1 & 2 & 3 & 4 &   1 & 2 & 3 & 4 
                     _____ 
               (x2) |2. 
|------------------|-----------------|
|-----------------*|-----------------|
|-5-5-5-5-5-5-5-5-*|-5-5-5-5-5-5-5-5-|
|------------------|-----------------|
  1 & 2 & 3 & 4 &    1 & 2 & 3 & 4 &

END:

|-----------------|-----------------|-----------------|
|-----------------|-----------------|-----------------|
|-----------------|-3-3-3-3-3-3-3-3-|-----------------|
|-0-0-0-0-0-0-0-0-|-----------------|-3-3-3-3-3-3-3-3-|
   1 & 2 & 3 & 4 &   1 & 2 & 3 & 4 &   1 & 2 & 3 & 4 &

|-----------------|------------------|-----------------|
|-----------------|*-----------------|-----------------|
|-----------------|*-----------------|-3-3-3-3-3-3-3-3-|
|-3-3-3-3-3-3-3-3-|--0-0-0-0-0-0-0-0-|-----------------|
  1 & 2 & 3 & 4 &    1 & 2 & 3 & 4 &   1 & 2 & 3 & 4 & 
                                       ______ 
                                 (x2) |2.
|-----------------|------------------|-----------------|
|-----------------|-----------------*|-----------------|
|-----------------|-5-5-5-5-5-5-5-5-*|-5-5-5-5-5-5-5-5-|
|-3-3-3-3-3-3-3-3-|------------------|-----------------|
  1 & 2 & 3 & 4 &   1 & 2 & 3 & 4 &    1 & 2 & 3 & 4 &

|---------|---------|---------|
|---------|---------|---------|
|---------|---------|---------|
|-0-3-5-r-|-r-r-r-r-|-0-3-5-r-|
  1 2 3 4   1 2 3 4   1 2 3 4

Comments