Midnight Aria - Goodbye Chords & Tabs

 

Goodbye Chords & Tabs

Midnight Aria Chords & Tabs

Version: 1 Type: Tab 0 ratings
1 star 2 stars 3 stars 4 stars 5 stars
comments

Goodbye Tab

This is a relatively new band from Ocala, Florida that have just been signed. Every
song that I have heard is worth listening to... I like this song more than every other
song of them... It is very simple and it has a background part that I have not yet figured out


Piano (2
e|-------------------------------------------------------------|
b|-----7-------7-------7-------7-------7-------7-------7-------|
g|---4---4---4---4---4---4---4---4---4---4---4---4---4---4-----|  
d|-6-------6-------6-------6-------4-------4-------4-------4---|
a|-------------------------------------------------------------|
E|-------------------------------------------------------------|


Guitar 1
e|----------------------|
b|----------------------|
g|-9-8-6-4--4-4-4-6-----|
d|----------------------|
a|----------------------|
E|----------------------|

[ Tab from: http://www.guitartabs.cc/tabs/m/midnight_aria/goodbye_tab.html ]
e|-------14-------14-------------14-------14--|
b|----12-------12-------12----12-------12-----|
g|-15-------15-------15----15-------15--------|
d|--------------------------------------------|
a|--------------------------------------------|
E|--------------------------------------------|

e|-------14-------14-------------14-------14--|
b|----12-------12-------12----12-------12-----|
g|-13-------13-------13----13-------13--------|
d|--------------------------------------------|
a|--------------------------------------------|
E|--------------------------------------------|

e|-------14-------14-------------14-------14--|
b|----12-------12-------12----12-------12-----|
g|-15-------15-------15----15-------15--------|
d|--------------------------------------------|
a|--------------------------------------------|
E|--------------------------------------------|

e|------------------|
b|-14b-14-14-12-----|
g|--------------15--|
d|------------------|
a|------------------|
E|------------------|
Comments