Midasuno - Tear Chords & Tabs

 

Tear Chords & Tabs

Midasuno Chords & Tabs

Version: 1 Type: Tab 0 ratings
1 star 2 stars 3 stars 4 stars 5 stars
comments

Tear Tab

Midasuno  ||  Tear   ::  tabbed by thislostboy@hotmail.com
----------------------------------------------------------->

there's 2 guitars playing two different things a lot of the time so ive tabbed them seperately. if you only have one guitarist just play guitar 1's parts and you'll get the man basis of the song.



guitar 1 : clean

e---7--7--7--7--7--7--7--7--s>--12--12--12----------------------
b---8--8--8--8--8--8--8--8--s>--13--13--13----------------------
g---9--9--9--9--9--9--9--9--s>--14--14--14----------------------
d--------------------------------------------------------------- (x4)
a---------------------------------------------------------------
e---------------------------------------------------------------

after 2 repeats of the intro. guitar 2 turns on a flanger effect, but doesn't play anything.
the effect carries on as guitar 1 repeats the riff twice more.




e---7--7--7--7--7--7--7--7----8---8---8----------------------
b---8--8--8--8--8--8--8--8----8---8---8----------------------
g---9--9--9--9--9--9--9--9----9---9---9----------------------
d---9--9--9--9--9--9--9--9----10--10--10----------------------
a---7--7--7--7--7--7--7--7----10--10--10----------------------
e---0--0----------------------8---8---8--------------------------------

< guitar 2 : w/dist >
e---------------------------------------------------------------
b---------------------------------------------------------------
g-----------------5-5-5-------------------5-5-5-----------------
d--2-2-2-2-2-2-2--5-3-5---2-2-2-2-2-2-2---5-5-5-----------------
a--2-2-2-2-2-2-2--3-3-3---2-2-2-2-2-2-2---3-3-3-----------------
e--0-0-0-0-0-0-0----------0-0-0-0-0-0-0-------------------------


________________________________________________________________________________________

< verse >

(clean)

e---3---3---3---3---3---3--3--3--3-----3---3---3---3---3---3---3---3--3--
b---3---3---3---3---3---3--3--3--3-----3---3---3---3---3---3---3---3--3--
g---4---4---4---4---4---4--4--4--4-----0---0---0---0---0---0---0---0--0--
d---5---5---5---5---5---5--5--5--5-----4---4---4---4---4---4---4---4--4--
a---5---5---5---5---5---5--5--5--5-----5---5---5---5---5---5---5---5--5--
e------------------------------------------------------------------------


(w/dist)
e---------------------------------------------------------------
b---------------------------------------------------------------
g---------------------------------------------------------------
d--2-2-2-2--5--5---2-2-2-2--5--5--------------------------------
a--2-2-2-2--5--5---2-2-2-2--5--5-------------------------------- x2
e--0-0-0-0--3--3---0-0-0-0--3--3--------------------------------


(guitar 1: clean )
e---3---3---3---3---3---3--3--3--3-----3---3---3---3---3---3---3---3--3--
b---3---3---3---3---3---3--3--3--3-----3---3---3---3---3---3---3---3--3--
g---4---4---4---4---4---4--4--4--4-----0---0---0---0---0---0---0---0--0--
d---5---5---5---5---5---5--5--5--5-----4---4---4---4---4---4---4---4--4--
a---5---5---5---5---5---5--5--5--5-----5---5---5---5---5---5---5---5--5--
e------------------------------------------------------------------------

(guitar 1+2 : dist)
e---------------------------------------------------------------
b---------------------------------------------------------------
g---------------------------------------------------------------
d--2-2-2-2--5--5---2-2-2-2--5--5-------------------------------- x2
a--2-2-2-2--5--5---2-2-2-2--5--5--------------------------------
e--0-0-0-0--3--3---0-0-0-0--3--3--------------------------------


(guitar 1 : dist)
e-----------------------------------------------------------------------------
b-----------------------------------------------------------------------------
g-----------------------------------------------------------------------------
d---7--7--7--7--7--7--7--7--7--7--7--7--7----5--5--5--5--5--5--5--5--5--5-----
a---7--7--7--7--7--7--7--7--7--7--7--7--7----5--5--5--5--5--5--5--5--5--5-----
e---5--5--5--5--5--5--5--5--5--5--5--5--5----3--3--3--3--3--3--3--3--3--3-----
[ Tab from: http://www.guitartabs.cc/tabs/m/midasuno/tear_tab.html ]
(guitar 2 : phaser/dist)
e----5---7-8---5---7-8---5---7-8---5---7-8------5----------5-----------5------------
b-------------------------------------------8------7-8---------7-8--------7-8-------
g-----------------------------------------------------------------------------------
d-----------------------------------------------------------------------------------
a-----------------------------------------------------------------------------------
e-----------------------------------------------------------------------------------

________________________________________________________________________________________

< pre-chorus : guitar 1 : clean/compression >

e-----------------------------------------------------------
b-----------------------------------------------------------
g-----------0-------0-----------0-------0----------0------0- (x2)
d-----------------2---------2--------2---------4-------4-----
a------2--------0-----------------3--------2----------------
e---0-----------------3-------------------------------------


________________________________________________________________________________________

< chorus : guitar 1+2 : distortion >

e---------------------------------------------------------------------------------------------
b---------------------------------------------------------------------------------------------
g------------------------2--2--2--2--2---------------5---5--5---5--5--5---5---4--4--4--4--4---
d--2--2--2--2--2--2--2---2--2--2--2--2----5--5--5----5---5--5---5--5--5---5---4--4--4--4--4---
a--2--2--2--2--2--2--2---0--0--0--0--0----5--5--5----3---3--3---3--3--3---3---2--2--2--2--2---
e--0--0--0--0--0--0--0--------------------3--3--3---------------------------------------------


e---------------------------------------------------------------
b---------------------------------------------------------------
g-----------------5-5-5-------------------5-5-5-----------------
d--2-2-2-2-2-2-2--5-3-5---2-2-2-2-2-2-2---5-5-5-----------------
a--2-2-2-2-2-2-2--3-3-3---2-2-2-2-2-2-2---3-3-3-----------------
e--0-0-0-0-0-0-0----------0-0-0-0-0-0-0-------------------------

________________________________________________________________________________________

< break >
< guitar 2 : phaser : distortion >

e----------8-----------8------------8------------8---|-----------7----------7------------7-----------7--
b--5---7-------5---7--------5---7--------5---7-------|---5---8-------5--8--------5---8-------5---8------
g----------------------------------------------------|--------------------------------------------------
d----------------------------------------------------|--------------------------------------------------
a----------------------------------------------------|--------------------------------------------------
e----------------------------------------------------|--------------------------------------------------
this is played over the chord stabs below and then the riff underneath that. 

< guitar 1 : distortion : >
e------|------------|---------|-------------------|-----|-----------|---------|------------------------------------------
b------|------------|---------|-------------------|-----|-----------|---------|------------------------------------------
g------|------------|---------|-------------------|-----|-----------|---------|------------------------------------------
d---2--|---10--9-9--|--2--2---|---10--9--9--9--9--|--2--|--10--9-9--|---2--2--|--10---9--9--9----------
a---2--|---10--9-9--|--2--2---|---10--9--9--9--9--|--2--|--10--9-9--|---2--2--|--10---9--9--9----------
e---0--|---8---7-7--|--0--0---|---8---7--7--7--7--|--0--|--8---7-7--|---0--0--|--8----7--7--7----------
the timing of these chord stabs is quite hard to nail, so listen carefully.

e-------------------------------------------------------------------------------------------------
b-------------------------------------------------------------------------------------------------
g-------------------------------------------------------------------------------------------------
d---2--2--2--2--2--2--2--2--2--2--2---10--10--10--10--9--9--9--9--9--9--9--9--9--9--9--9--9-------
a---2--2--2--2--2--2--2--2--2--2--2---10--10--10--10--9--9--9--9--9--9--9--9--9--9--9--9--9-------
e---0--0--0--0--0--0--0--0--0--0--0---8---8---8---8---7--7--7--7--7--7--7--7--7--7--7--7--7-------

________________________________________________________________________________________

that's about all there is to the song


Comments