Microphones - I Felt Your Shape Chords & Tabs

 

I Felt Your Shape Chords & Tabs

Microphones Chords & Tabs

Version: 1 Type: Tab 0 ratings
1 star 2 stars 3 stars 4 stars 5 stars
comments

I Felt Your Shape Tab

   
Here is I Felt Your Shape by The Microphones (now known as Mt. Eerie)

www.krecs.com

This is played on a solo acoustic guitar so it's one of the few Microphones songs that
doesn't require fog horns, church organs and human heart beats. 

I hope you like it, i did it especially for you. 

-Jack Jutson
--------------------------------------------------------------------------

Intro

|------------------7-7-7-7-7-3-3-3-3-0-0-0-0-|
|---7----7----7----7-7-7-7-7-3-3-3-3-0-0-0-0-|
|---7----7----7----7-7-7-7-7-4-4-4-4-1-1-1-1-|
|---7----7----7----9-9-9-9-9-5-5-5-5-2-2-2-2-|
|-9---7------------9-9-9-9-9-5-5-5-5-2-2-2-2-|
|----------10----7-7-9-9-9-9-3-3-3-3-0-0-0-0-|

|------------------7-7-7-7-7-3-3-3-3-0-0-0-0-|
|---7----7----7----7-7-7-7-7-3-3-3-3-0-0-0-0-|
|---7----7----7----7-7-7-7-7-4-4-4-4-1-1-1-1-|
|---7----7----7----9-9-9-9-9-5-5-5-5-2-2-2-2-|
|-9---7------------9-9-9-9-9-5-5-5-5-2-2-2-2-|
|----------10----7-7-9-9-9-9-3-3-3-3-0-0-0-0-|








I thought i felt your shape but i was wrong
Really all i felt was falsely strong
|------------------7-7-7-7-7-3-3-3-3-0-0-0-0-|
|---7----7----7----7-7-7-7-7-3-3-3-3-0-0-0-0-|
|---7----7----7----7-7-7-7-7-4-4-4-4-1-1-1-1-|
|---7----7----7----9-9-9-9-9-5-5-5-5-2-2-2-2-|
|-9---7------------9-9-9-9-9-5-5-5-5-2-2-2-2-|
|----------10----7-7-9-9-9-9-3-3-3-3-0-0-0-0-|


I held on tight and closed my eyes
It was dumb i had no sense of your size
|------------------7-7-7-7-7-3-3-3-3-0-0-0-0-|
|---7----7----7----7-7-7-7-7-3-3-3-3-2-2-2-2-|
|---7----7----7----7-7-7-7-7-4-4-4-4-2-2-2-2-|
|---7----7----7----9-9-9-9-9-5-5-5-5-2-2-2-2-|
|-9---7------------9-9-9-9-9-5-5-5-5-0-0-0-0-|
|----------10----7-7-9-9-9-9-3-3-3-3---------|

       Bm              A
It was dumb to hold so tight

      G           D
La la la but last night

[ Tab from: http://www.guitartabs.cc/tabs/m/microphones/i_felt_your_shape_tab.html ]
on your birthday in the kitchen
my grip was loose my eyes were open
|------------------7-7-7-7-7-3-3-3-3-0-0-0-0-|
|---7----7----7----7-7-7-7-7-3-3-3-3-0-0-0-0-|
|---7----7----7----7-7-7-7-7-4-4-4-4-1-1-1-1-|
|---7----7----7----9-9-9-9-9-5-5-5-5-2-2-2-2-|
|-9---7------------9-9-9-9-9-5-5-5-5-2-2-2-2-|
|----------10----7-7-9-9-9-9-3-3-3-3-0-0-0-0-|


i felt your shape and heard you breathing
i felt the rise and the fall of your chest
|------------------7-7-7-7-7-3-3-3-3-0-0-0-0-|
|---7----7----7----7-7-7-7-7-3-3-3-3-2-2-2-2-|
|---7----7----7----7-7-7-7-7-4-4-4-4-2-2-2-2-|
|---7----7----7----9-9-9-9-9-5-5-5-5-2-2-2-2-|
|-9---7------------9-9-9-9-9-5-5-5-5-0-0-0-0-|
|----------10----7-7-9-9-9-9-3-3-3-3---------|


            Bm                A
i felt your fall, your winter snows

           G                D
your gusty blows, your lava flow

          Bm               A
i felt it all, your starry night

             G           D
your lack of light, with limp arms i can feel... 



...most of you
I hung around your neck independently and the...

|------------------7-7-7-7-7-3-3-3-3-0-0-0-0-|
|---7----7----7----7-7-7-7-7-3-3-3-3-0-0-0-0-|
|---7----7----7----7-7-7-7-7-4-4-4-4-1-1-1-1-|
|---7----7----7----9-9-9-9-9-5-5-5-5-2-2-2-2-|
|-9---7------------9-9-9-9-9-5-5-5-5-2-2-2-2-|
|----------10----7-7-9-9-9-9-3-3-3-3-0-0-0-0-|

...loss was overwhelmed
By this new depth i don't think i've ever felt

|------------------7-7-7-7-7-3-3-3-3-0-0-0-0-|
|---7----7----7----7-7-7-7-7-3-3-3-3-2-2-2-2-|
|---7----7----7----7-7-7-7-7-4-4-4-4-2-2-2-2-|
|---7----7----7----9-9-9-9-9-5-5-5-5-2-2-2-2-|
|-9---7------------9-9-9-9-9-5-5-5-5-0-0-0-0-|
|----------10----7-7-9-9-9-9-3-3-3-3---------|

but i don't know, my nights are cold
i remember warmth, i could have sworn
i wasn't...

|---------------------3-3-3-3-0-0-0-0-|
|---7-7-7-7---7-7-7-7-3-3-3-3-0-0-0-0-|
|---7-7-7-7---7-7-7-7-4-4-4-4-1-1-1-1-|
|---7-7-7-7---7-7-7-7-5-5-5-5-2-2-2-2-|
|-9---------7---------5-5-5-5-2-2-2-2-|
|---------------------3-3-3-3-0-0-0-0

..alone

|------------------7-7-7-7-7--------------------------------------|
|---7----7----7----7-7-7-7-7------------------------------------7-|
|---7----7----7----7-7-7-7-7------------------------------------7-|
|---7----7----7----9-9-9-9-9-------------------9-9-7-7----------7-|
|-9---7------------9-9-9-9-9--------------------------10-10-9-9-9-|
|----------10----7-7-9-9-9-9-7-7-9-9-10-10-7-7--------------------|
Comments