Mick Jagger - Old Habits Die Hard Chords & Tabs

 

Old Habits Die Hard Chords & Tabs

Mick Jagger Chords & Tabs

Version: 1 Type: Tab 0 ratings
1 star 2 stars 3 stars 4 stars 5 stars
comments

Old Habits Die Hard Tab

   
OLD HABITS DIE HARD

Mick Jagger & Dave Stewart


Intro:


     F (stroke 2 times than play tabs)  C (4 times + tab)

e-----------------------------------------------8--10------------------------|
B-------10--8--10------------------------------------------------------------|
G----------------------------------------------------------------------------|
D----------------------------------------------------------------------------|
A----------------------------------------------------------------------------|
E----------------------------------------------------------------------------|

    Gm (2 times + tab)     Bb (2 times + tab)

e-----------------------------------6----------------------------------------|
B-------11--10--8--------------------6--8--6---------------------------------|
G----------------------------------------------------------------------------|
D----------------------------------------------------------------------------|
A----------------------------------------------------------------------------|
E----------------------------------------------------------------------------|

     F (2 times + tabs)  C (4 times + tab)

e-----------------------------------------------8--10------------------------|
B-------10--8--10------------------------------------------------------------|
G----------------------------------------------------------------------------|
D----------------------------------------------------------------------------|
A----------------------------------------------------------------------------|
E----------------------------------------------------------------------------|

    Gm (2 times + tab)       Bb (2 times + tab)
[ Tab from: http://www.guitartabs.cc/tabs/m/mick_jagger/old_habits_die_hard_tab.html ]
e-----------------------------------6---------------------------------------|
B-------11--10--8--10------------------6--8--6------------------------------|
G---------------------------------------------------------------------------|
D---------------------------------------------------------------------------|
A---------------------------------------------------------------------------|
E---------------------------------------------------------------------------|

    F
  I thought I shook myself free,
            C
  you see I bounce back quicker than most,
          Bb                 Dm
  but I'm half delirious, is too mysterious,
      Bb
  you walk through my walls like a ghost.

  And I take everyday at a time,
  I'm proud as a lion in his lair,
  now there's no denying it, a note to crying it,
  your all tangled up in my head.

     F                C
       Old habits die hard,
   Gm                    Bb
       old soldiers just fade away,
     F                C
       old habits die hard,
       Gm             Bb
       harder than November rain.

       Old habits die hard,
       old soldiers just fade away,
       old habits die hard,
       hard enough to feel the pain.

  We haven't spoken in months,
  you see, I've been counting the days,
  I dream of such humanities, such insanities,
  I'm lost like a kid and I'm late.

  But I've never taken your coats,
  you see, haven't put no block on my phone,
  I act like an addict, I just got to have it,
  I never can leave it alone.


F    x-8-10-10-10-8---|
C    8-10-10-9-8-8----|
Gm   x-10-12-12-11-10-|
Bb   6-8-8-7-6-6------|
Dm   x-5-7-7-6-5------|

Posted by western@email.si

Saturday, 28.12.2004.
Comments