Michelle Branch - Tuesday Morning Chords & Tabs

 

Tuesday Morning Chords & Tabs

Michelle Branch Chords & Tabs

Version: 1 Type: Tab 0 ratings
1 star 2 stars 3 stars 4 stars 5 stars
comments

Tuesday Morning Tab

   
This is as close as i could get it sounds pretty good though.

* This is a fingerpicked version, except for some parts
I couldn't figure out a tab so I put in chords. 

Standard Tuning 

* Play this during intro/verses:

e|-3-----3-----3---2-----2-----2---0-----0-----0---2-----2-----2-3-3--|
B|---3-----3-----3---3-----3-----3---3-----3-----3---3-----3----------|
G|-----0-----0---------0-----0---------0-----0---------0-----0--------|
D|--------------------------------------------------------------------|
A|--------------------------------------------------------------------|
E|--------------------------------------------------------------------|       

I remember stormy weather, the way the sky looks when it's cold
And you were with me, content with walking, so unaware of the world

* This part is chords.

  em       C        G        D
e|-0-------0--------3--------2----------------------------------------|
B|-0-------1--------0--------3----------------------------------------|
G|-0-------0--------0--------2----------------------------------------|
D|-2-------2--------0--------0----------------------------------------|
A|-2-------3--------2-------------------------------------------------|
E|-0----------------3-------------------------------------------------|

(em) Please don't (C) drive me (G) home tonight (D)

(em) 'Cause I don't (C) wanna feel a(em)lone

(em) Please don't (C) drive me (G) home tonight (D)

(em) 'Cause I (C) don't wanna (D) go

* Chorus:
[ Tab from: http://www.guitartabs.cc/tabs/m/michelle_branch/tuesday_morning_tab.html ]
e|--------------------------------------------------------------------|
B|---0-----0-----0-------------------0-----0-----0---1-----1-----1----|
G|-----0-----0-----0-2-0---2-0---2-0---0-----0-----0---0-----0-----0--|
D|-------0-----0---------0-----0---------0-----0---------0-----0------|
A|--------------------------------------------------------------------|
E|--------------------------------------------------------------------|       

Tuesday morning in the dark
I was finding out who you are

* This is played in between the chorus and next verse:

e|------0---------------0-----0---------------------------------------|
B|--------3-----3---------3-3---3-------------------------------------|
G|--x-2-----x-0---0-x-0-----------0-----------------------------------|
D|--------------------------------------------------------------------|
A|--------------------------------------------------------------------|
E|--------------------------------------------------------------------|       

I took your picture while you were sleeping
And then I paced around the room
If I had known then (D) that these things happen
Would they have happened with you?

Please don't drive me home tonight
'Cause I don't wanna feel alone
Please don't drive me home tonight
'Cause I don't wanna go

Tuesday morning in the dark
I was finding out who I was

(em) And if you (C) turned around to (G) see me and I was (D) gone

(em) You should have (C) looked outside your (G) window

'Cause the (D) sun was coming (G) up (D) oh (em)

(C) The sun was coming (G) up (D) oh (em)(C)

Please don't drive me home tonight
'Cause I don't wanna feel alone

* Riff for the first line of the chorus

e|----3-----------3-----------2-----------2-----------0---------0-----|
B|--3---3---3---3---3---3---3---3---3---3---3---3---3---3---3--3-0-3-3|
G|0-------0---0-------0---0-------0---0-------0---0-------0---0---0--2|               
D|-------------------------------------------------------------------0|
A|-------------------------------------------------------------------1|
E|-------------------------------------------------------------------0|       

Tuesday morning in the dark
We were finding out who we are
Tuesday morning in the dark
We were finding out who we are

(D) (em) Oh, who we (C) are, who we (G) are (D) oh (em)

Who we (C) are.
Comments