Michelle Branch - Its You Chords & Tabs

 

Its You Chords & Tabs

Michelle Branch Chords & Tabs

Version: 4 Type: Tab 0 ratings
1 star 2 stars 3 stars 4 stars 5 stars
comments

Its You Tab

   
 i got this from the Hotel Paper SONGBOOK GUITAR EDITION.


CAPO 4TH FRET!!

chords used (low to high-EADGBe)
D        xxo232  Bm       x24o3o
D/F#     2oo23o  Bm/A     xo4o3o
G6       3ooo3o  Gmaj7    3o443ox

INTRO

E--------------------|
A--------------------|
D--------------------|
G-------6----4---2---|
B--3----3----3---3---|
e--2----5--------2---|

VERSE

   D         D/F#                 G6
E-------------2-----------3------------------|
A--------------------------------------------|
D--0-------------------------0-------------0-|
G----2-----------2-------------0---------0---|   <>
B--------3----------3-3-----------3----3-----|
e------2------------0-------------0----------|

CHORUS:
[ Tab from: http://www.guitartabs.cc/tabs/m/michelle_branch/its_you_tab_ver_4.html ]
       Bm       Bm/A              Gmaj7
E---------------------------------3------------------|
A--2---------------0-------------------------------0-|
D-----4---------------4--------------4---------------|
G--------------------------------------4-------4-----|
B--------3--3-------------3---3-----------3--3-------|
e--------0----------------0---------------0----------|

BRIDGE/SOLO CHORDS:

Bm   Bm/A Gmaj7

   ^^
throughout solo

SOLO


(w/bar)

E---------------------------------------------------------------------|
A---------------------------------------------------------------------|
D---2--2--------------------------------------------------------------|
G-----------4h6-----------4-------------------------------------------|
B----------------4-5---7--6-------------5--(5)~~~--5--5--------2~~~~~-|
e----------------------------4--4----7\------------------4\-----------|


END:

G6      D
Oh it's you


well that`s it! i hope you like it! enjoy! =] ..please rate!!..
Comments