Michelle Branch - Its You Chords & Tabs

 

Its You Chords & Tabs

Michelle Branch Chords & Tabs

Version: 2 Type: Tab 0 ratings
1 star 2 stars 3 stars 4 stars 5 stars
comments

Its You Tab

Michelle Branch
Tabbed by Pamela Lama

Author/Artist:Michelle Branch
Title: Its You
Album: Hotel Paper

Standard Tunning
Intro/Verse 
E--------------------------------------7------------------------------
B-------11-----------------------------7------------------------------
G----11----11--------13p11-------------7------------------------------
D-11--------------11---------------9---9------------------------------
A--------------------------------9-----9------------------------------
E------------------------------7-------7-------------------------------
[ Tab from: http://www.guitartabs.cc/tabs/m/michelle_branch/its_you_tab_ver_2.html ]
Chorus
E---------------------------------------------------------------------
B---------------------------------------------------------------------
G------8--------------------------------------------------------------
D----8---8--------11----------9-----------(x3)------------------------
A--6-----------11---11------9---9-------------------------------------
E------------9------------7-------------------------------------------

note: second time 0 hammer on 6 like this:
E--------------
B--------------
G------8-------
D----8---8-----
A-0h6----------
E--------------
"The light changes when your in the room"

No solo yet.
Comments