Michelle Branch - Its You Chords & Tabs

 

Its You Chords & Tabs

Michelle Branch Chords & Tabs

Version: 1 Type: Tab 0 ratings
1 star 2 stars 3 stars 4 stars 5 stars
comments

Its You Tab

   
This is one of my first full song tabs, hope you like it :D. ~Pez

Capo 4

|---2---5------|
|------------3-|
|--------------|
|--------------|
|--------------|
|--------------|

[ Tab from: http://www.guitartabs.cc/tabs/m/michelle_branch/its_you_tab.html ]
   D
|------------2----------------0---------------------0----------------|
|-----------------3---------------3---------------------3------------|
|-------2-----------------2----------------0----------------0--------|
|---0-----------------0---------------0--------0----------------0----|
|--------------------------------------------------------------------|
|--------------------------------------------------------------------|

Chorus
|-------------0--------|         |-----------------0-----------------|
|------------------3---|         |----------------------3------------|
|--------2-------------|         |--------0-----------------0--------|
|---0------------------|   x2    |---0--------0-----------------0----|
|----------------------|         |-----------------------------------|
|----------------------|         |-----------------------------------|

 Solo (Rather pathetic)
|---2---2---5------------|
|-----------------3------|
|------------------------|
|------------------------|
|------------------------|
|------------------------|
Comments