Michelle Branch - Hotel Paper Live Chords & Tabs

 

Hotel Paper Live Chords & Tabs

Michelle Branch Chords & Tabs

Version: 1 Type: Chords 0 ratings
1 star 2 stars 3 stars 4 stars 5 stars
comments

Hotel Paper Live Chords

   
--------------------------------------------------------------------------------
                   Hotel Paper (live version) - Michelle Branch
--------------------------------------------------------------------------------
Tabbed by: guitarchick07
Email: guitarfreak07@msn.com
Tuning: EADGBE

Capo on 3rd fret

u=up stroke   d=down stroke

D        xx0232      
Em7      x22033	
Cadd9    x30033	
G        320033	
Bm       224432
F#m      244222


Intro/Verse
  D          Em7        Cadd9        G          Cadd9        G
------2-2-3------3-3-3--------3-3-3------3-3-3--------3-3-3------3-3-3
------3-3-3------3-3-3--------3-3-3------3-3-3--------3-3-3------3-3-3
------2-2-2------0-0-0--------0-0-0------0-0-0--------0-0-0------0-0-0
--0---0-0-0------2-2-2--------0-0-0------0-0-0--------0-0-0------0-0-0
-------------2---2-2-2--2h3---3-3-3------2-2-2--2h3---3-3-3--3---2-2-2
-------------------------------------3---3-3-3-------------------3-3-3
  D   u D u  D   u D u  D     u D u  D   u D u  D     u D u  D   u D u

  G          G
------3-3-3--------3-3-3--
------3-3-3--------3-3-3--
------0-0-0--------0-0-0--
------0-0-0--------0-0-0--
------2-2-2--0h2---2-2-2--
--3---3-3-3--------3-3-3--
  D   u D u  D     u D u  

Verse 1
D Em7   Cadd9     G     Cadd9    G
I write mostly on hotel paper
D  Em7       Cadd9            G     Cadd9      G
Knowing that my thoughts will never leave this room
D   Em7 Cadd9      G                Cadd9    G
I’d be out of line telling you, “leave her”
   D Em7 Cadd9    G          Cadd9    G
So I lie lonely surrounded by you
   D    Em7    Cadd9    G
By you         ooh
[ Tab from: http://www.guitartabs.cc/tabs/m/michelle_branch/hotel_paper_live_crd.html ]
Verse 2
D  Em7 Cadd9      G         Cadd9    G
Lately I can’t be happy for no one
D    Em7   Cadd9       G         Cadd9    G
They think I need some time to myself
D Em7    Cadd9       G       Cadd9    G
I try to smile but I can’t remember
    D Em7    Cadd9           G          Cadd9    G
And I know tomorrow there’ll be nothing else


Chorus (strum each chord four times)
    D    Em7    Cadd9
And I
G         D    Em7    Cadd9
Wanted to be
G          D Em7 G         D         Em7    Cadd9    G
Giving you everything that she’s not giving
    D    Em7    Cadd9
And I
G         D    Em7    Cadd9
Wanted to see
          G         Bm       F#m      G 
‘Cause I didn’t believe what I’d been hearing

Verse 3
D   Em7    Cadd9     G           Cadd9         G
You turned out to be more than I bargained for
    D Em7 Cadd9         G       Cadd9 G
And I can tell that you need to get away
   D   Em7 Cadd9  G            Cadd9   G 
Forgive me if I admit that I’d love to love you
D  Em7  Cadd9       G       Cadd9    G
We both realized it way too late

Chorus

D                                             D
Maybe this wind blowing in just came from the ocean

D Em7   Cadd9     G     Cadd9  G(strum up)
I write mostly on hotel paper 


I'm pretty sure this is correct.  I tabbed it out from the live video on the
enhanced part of the cd.  Please email me if you find any errors.  My screen name
is guitarchick46 so you can im me too if you find errors.
Comments