Michelle Branch - All You Wanted Chords & Tabs

 

All You Wanted Chords & Tabs

Michelle Branch Chords & Tabs

Version: 7 Type: Tab 0 ratings
1 star 2 stars 3 stars 4 stars 5 stars
comments

All You Wanted Tab

   
Tabbed by Darlene J.
Michelle branch - all you wanted (leno version)
Email me at dj8008@hotmail.com
Capo on 7th fret
intro
VERSE
E------3---------3----------3-----------3------
B------3---------3----------3-----------3------
G----0--------0--------------------------------
D--2--------0-----------2----------------------
A--------------------3-------------2-----------
E-------------------------------3--------------
I wanted to be like you
i wanted everythin
so i tried to be like you
and i got swept away
E-----------3-3-----------------------------
B-----------3-3-----------------------------
G-----------0-0-----------------------------
D-----------0-0-----------------------------
A-------------0-----------------------------
E----2-2-2----2-----------------------------
away

E------3---------3----------3-----------3------
B------3---------3----------3-----------3------
G----0--------0--------------------------------
D--2--------0-----------2----------------------
A--------------------3-------------2-----------
E-------------------------------3--------------
i didn't know that
it was so cold and
you needed someone to show you the way
so i took ur hand and
we figured out that
when the time comes i'll take you away

E-----------3-3-----------------------------
B-----------3-3-----------------------------
G-----------0-0-----------------------------
D-----------0-0-----------------------------
A-------------0-----------------------------
E----2-2-2----2-----------------------------
away

Chorus
 Em   C  G   D
E-0---0--3---2-------------------
B-0---1--3---3-------------------
G-0---0--0---2-------------------
D-2---2--0---0-------------------
A-2---3--2---0-------------------
E-0---0--3---0-------------------
if you want to
i can save you
i can take you away from here
so lonely inside
so busy out there
and all you wanted was
somebody who cares

VERSE
E------3---------3----------3-----------3------
B------3---------3----------3-----------3------
G----0--------0--------------------------------
D--2--------0-----------2----------------------
A--------------------3-------------2-----------
E-------------------------------3--------------
i'm sinkin slowly
so hurry hold me
yours hand is all i have
to keep be hanging on
please can you tell me
so i can finally see
where you go when your gone
where you go when your gone
[ Tab from: http://www.guitartabs.cc/tabs/m/michelle_branch/all_you_wanted_tab_ver_7.html ]
E-----------3-3-----------------------------
B-----------3-3-----------------------------
G-----------0-0-----------------------------
D-----------0-0-----------------------------
A-------------0-----------------------------
E----2-2-2----2-----------------------------


CHORUS
Em   C  G   D
E-0---0--3---2-------------------
B-0---1--3---3-------------------
G-0---0--0---2-------------------
D-2---2--0---0-------------------
A-2---3--2---0-------------------
E-0---0--3---0-------------------
if you want to
i can save you
i can take you away from here
so lonely inside
so busy out there
and all you wanted was
somebody who cares

Bridge(Figure out the strum pattern)

E-0--0-0-3------0--0--0--5-------------
B-1--1-1-1------3--3--3--3-------------
G-0--0-0-0------0--0--0--0-------------
D-2--2-2-2------4--4--4--4-------------
A-3--3-3-3------5--5--5--5-------------
E--------------------------------------
all you wanted was somebody who cares

E-0--0-0-3------0--0--0--5---------------
B-1--1-1-1------3--3--3--3---------------
G-0--0-0-0------0--0--0--0---------------
D-2--2-2-2------4--4--4--4---------------
A-3--3-3-3------5--5--5--5---------------
E----------------------------------------
if you need me you know i'll be there

E-0-0-0-3-3-2----------------------------
B-1-1-1-3-3-3----------------------------
G-0-0-0-0-0-2----------------------------
D-2-0-2-0-0------------------------------
A-3-2-0-2-0------------------------------
E-------3-2------------------------------
there 

chorus
repeat twice
Em   C  G   D
E-0---0--3---2--------------------
B-0---1--3---3--------------------
G-0---0--0---2--------------------
D-2---2--0---0--------------------
A-2---3--2---0--------------------
E-0---0--3---0--------------------
if you want to
i can save you
i can take you away from here
so lonely inside
so busy out there
and all you wanted was
somebody who cares

intro
E------3---------3----------3-----------3------
B------3---------3----------3-----------3------
G----0--------0--------------------------------
D--2--------0-----------2----------------------
A--------------------3-------------2-----------
E-------------------------------3--------------
please can you tell me 
so i can finally see
where you go when your

end song on this chord
E--3------------------------
B--3------------------------
G--0------------------------
D--2------------------------
A--3------------------------
E---------------------------
gone
Comments