Michelle Branch - All You Wanted Chords & Tabs

 

All You Wanted Chords & Tabs

Michelle Branch Chords & Tabs

Version: 5 Type: Tab 0 ratings
1 star 2 stars 3 stars 4 stars 5 stars
comments

All You Wanted Tab

   
All You Wanted
(M. Branch)
From the album "The Spirit Room"
Transcribed by Sarah Kandrot (SKandrot@aol.com)

Chords:

 Em       (022033)
 D        (000232)
 C        (032033)   
 G        (320033) 
 Emadd13b (x20010)
 Am11     (x00010)
 G2       (300010)
 Dadd11   (200010)


Intro:
    Em           D            C            G          
E---------3------------2-------------------------0--------
B------------3------------3---------3---------------3-----
G------0------------0-------------0-----0------0----------
D---2------------0----------------------------------------
A-----------------------------3---------------------------
E------------------------------------------3--------------

Play intro x2 then verse:

    Em           D            C            G          
E---------3------------2-------------------------0--------
B------------3------------3---------3---------------3-----
G------0------------0-------------0-----0------0----------
D---2------------0----------------------------------------
A-----------------------------3---------------------------
E------------------------------------------3--------------

         I    wanted        to      be    like      you
         I    didn't know that it was    so    cold  and

    Em           D            C            G          
E---------3------------2-------------------------0--------
B------------3------------3---------3---------------3-----
G------0------------0-------------0-----0------0----------
D---2------------0----------------------------------------
A-----------------------------3---------------------------
E------------------------------------------3--------------

       I      wanted        everything
       You    needed someone  to show you the way

    Em           D            C            G          
E---------3------------2-------------------------0--------
B------------3------------3---------3---------------3-----
G------0------------0-------------0-----0------0----------
D---2------------0----------------------------------------
A-----------------------------3---------------------------
E------------------------------------------3--------------

     So       I   try     to      be      like   you
     So       I took your hand and we figured out that

    Em           D            C            G          
E---------3------------2-------------------------0--------
B------------3------------3---------3---------------3-----
G------0------------0-------------0-----0------0----------
D---2------------0----------------------------------------
A-----------------------------3---------------------------
E------------------------------------------3--------------

    And     I     got     swept        away...............
    When   the   tide    comes I'll take you away.........

E-----------0-------3--3------
B--------------3----3--2--3---
G--0------0---------------2---
D-----------------------------
A-----------------------------
E-----2-----------------------

.......
.......
[ Tab from: http://www.guitartabs.cc/tabs/m/michelle_branch/all_you_wanted_tab_ver_5.html ]
Em                  C
If you want to, I can save you
G                     D
I can take you away from here
Em                    C
So lonely inside, so busy out there
G                                       D
And all you wanted was somebody who cares

    Em           D            C            G          
E---------3------------2-------------------------0--------
B------------3------------3---------3---------------3-----
G------0------------0-------------0-----0------0----------
D---2------------0----------------------------------------
A-----------------------------3---------------------------
E------------------------------------------3--------------

         I'm  sinking slowly             so hurry hold me
	 Please  can you tell me         so I can finally see
         
    Em           D            C            G          
E---------3------------2-------------------------0--------
B------------3------------3---------3---------------3-----
G------0------------0-------------0-----0------0----------
D---2------------0----------------------------------------
A-----------------------------3---------------------------
E------------------------------------------3--------------

         Your  hand is  all  I need   to keep me hanging on
	 Where   you go when        your       gone.......

E-----------0-------3--3------
B--------------3----3--2--3---
G--0------0---------------2---
D-----------------------------
A-----------------------------
E-----2-----------------------

.......
         
Em                  C
If you want to, I can save you
G                     D
I can take you away from here
Em                    C
So lonely inside, so busy out there
G                                       D
And all you wanted was somebody who cares


C          D                       C             D
   All you wanted was somebody who cares, if you need me

                 C     Emadd13b   Am11  G2   Dadd11   D
You know I'll be there                                   yeah

Em                  C
If you want to, I can save you
G                     D
I can take you away from here
Em                    C
So lonely inside, so busy out there
G                                       D
And all you wanted was somebody who cares

    Em           D            C            G          
E---------3------------2-------------------------0--------
B------------3------------3---------3---------------3-----
G------0------------0-------------0-----0------0----------
D---2------------0----------------------------------------
A-----------------------------3---------------------------
E------------------------------------------3--------------

        Please can you tell  me         so I can finally see


    Em           D            C                    
E---------3------------2-------------------
B------------3------------3---------3------
G------0------------0-------------0-----0--
D---2------------0-------------------------
A-----------------------------3------------
E------------------------------------------

       Where     you go   when your gone

End on G chord
Comments