Michale Graves - Teenage Monster Chords & Tabs

 

Teenage Monster Chords & Tabs

Michale Graves Chords & Tabs

Version: 1 Type: Tab 0 ratings
1 star 2 stars 3 stars 4 stars 5 stars
comments

Teenage Monster Tab

       
  Michale Graves is was the lead singer foer The Misfits back in 1997.
  After they broke up Dr.Chud(The Misfits drummer)started Graves. 
  Graves broke up then Graves formed Gotham Road.Now he did this solo        
  project Punk Rock Is Dead.

  Band:Michale Graves
	 Song:Teenage Monster
	 Album:Punk Rock Is Dead
	 Tabbed By:Luis Alvarez

[ Tab from: http://www.guitartabs.cc/tabs/m/michale_graves/teenage_monster_tab.html ]
            +Teenage monster killed my father Something from the sky tonight
            Teenage monster soul survivor    Something stirs inside tonight
            Teenage monster killed my childhood Something happening to me
	    Blackmail,hiding youth is slowly dying Suddenly I feel relief
         
            Intro                       Verse
  |-------||--------------------------------------------------------------|
  |-------||--------------------------------------------------------------|
  |-------||--------Fisrt-Verse-------------------------------------------|
  |-------||---/11-11-11-11-11-11-11\----11---9---7--11----------9/11*----|
  |-Thrill||-+|-11-11-11-11-11-11-11-|---11---9---7--11----------9/11*----|
  |--9^---||---\9--9--9--9--9--9--9-/----9----7---5--9-----------7/9-*----|
         
   I am growin up ugly stupid  
   What has happened to me?
   Im so diffrent I can't stand it
   Teenage monster 
   Chorus
  |-----------------------------------------------------------------------|
  |-----------------------------------------------------------------------|
  |-----------------------------------------------------------------------|
  |---7*-7-7-7-7-7--9*-9-9-9-9-9---11*-11-11-11-11-11-11-11-11-11-11-11---|
  |---7*-7-7-7-7-7--9*-9-9-9-9-9---11*-11-11-11-11-11-11-11-11-11-11-11---|
  |---5*-5-5-5-5-5--7*-7-7-7-7-7---9-*-9--9--9--9--9--9--9--9--9--9--9----|
        
   That is me
   It takes a hold on me
   Something takes a hold of me
   Bridge
  |-----------------------------------------------------------------------|
  |-----------------------------------------------------------------------|
  |-----------------------------------------------------------------------|
  |--11-11-11-11--14-14-14--9--9-9-9---7--9-------------------------------|
  |--11-11-11-11--14-14-14--9--9-9-9---7--9-------------------------------|
  |--9--9--9--9---12-12-12--7--7-7-0m--5--7-------------------------------|

      Teenage Monster..{3times}....Thats is me..{2times} then end on C
         Outro
  |-----------------------------|------------------------------------------|
  |-----------------------------|------------------------------------------|
  |-----------------------------|------------------------------------------|
  |--7*-7-7-7-7-7--9*-9-9-9-9-9-|--11-11-11-11--14-14-14--9--9-9-9---7-9-11|
  |--7*-7-7-7-7-7--9*-9-9-9-9-9-|--11-11-11-11--14-14-14--9--9-9-9---7-9-11|
  |--5*-5-5-5-5-5--7*-7-7-7-7-7-|--9--9--9--9---12-12-12--7--7-7-0m--5-7-9-|
        
   Might look a little confusing but listen to the song and you'll see what
   I tried to do.It will be really easy once you play it several times.
   Sounds pretty good.If you find a better version or corrections on this
   one e-mail me at goingdown2die@yahoo.com
Comments