Michale Graves - 1119 Chords & Tabs

 

1119 Chords & Tabs

Michale Graves Chords & Tabs

Version: 1 Type: Tab 0 ratings
1 star 2 stars 3 stars 4 stars 5 stars
comments

1119 Tab

Band:MichaleGraves 
Song:1119
Album:Punk Rock Is Dead
Tab:Luis Alvarez




 Intro Slide 2/14/2 Then the main riff.Hella times
           Or single notes
|---------|-----------------------------------------------------------|
|---------|-----------------------------------------------------------|
|---------|-----------------------------------------------------------|
|---------|-----------------------------------------------------------|
|--2-2-4-5|-----------------------------------------------------------|
|--0-0-2-3|---0-0-2-3-------------------------------------------------|
 Pm. . . .    . . . .

|---------------------------------------------------------------------|
|---------------------------------------------------------------------|
|---------------------------------------------------------------------|
|--9-9--9-9-9----8-8--8-8-8----7-7--7-7-7----6-6--6-6-6---------------|
|--9-9--9-9-9----8-8--8-8-8----7-7--7-7-7----6-6--6-6-6---------------|
|--7-7--7-7-7----6-6--6-6-6----5-5--5-5-5----4-4--4-4-4---------------|
 Medium palm mute. .  . . .    . .  . . .    . .  . . .


|---------------------------------------------------------------------|
|---------------------------------------------------------------------|
|---------------------------------------------------------------------|
|--9-9--9-9-9----8-8--8-8-8----7-7--7-7-7-----------------------------|
|--9-9--9-9-9----8-8--8-8-8----7-7--7-7-7-----------------------------|
|--7-7--7-7-7----6-6--6-6-6----5-5--5-5-5-----------------------------|
 Medium palm mute. .  . . .    . .  . . .   



                                         Or this.Whatever feel easy
|---------------------------------------|-----------------------------|
|---------------------------------------|-----------------------------|
|-----------8-8-8-8-----------9-8-------|---9-8-6-4-------------------|
|--9-9-9-9--8-8-8-8--6-6-6-6--9-8-11--9-|---9-8-6-4-------------------|
|--9-9-9-9--6-6-6-6--6-6-6-6--7-6-11--9-|---7-6-4-2-------------------|
|--7-7-7-7-----------4-4-4-4------9---7-|-----------------------------|
 Medium palm mute .  . . . .  . . .   .


                                         Or this.Whatever feel easy
|---------------------------------------|-----------------------------|
|---------------------------------------|-----------------------------|
|-----------8-8-8-8-----------9-8-------|---9-8-6-4-------------------|
|--9-9-9-9--8-8-8-8--6-6-6-6--9-8-11--9-|---9-8-6-4-------------------|
|--9-9-9-9--6-6-6-6--6-6-6-6--7-6-11--9-|---7-6-4-2-------------------|
|--7-7-7-7-----------4-4-4-4------9---7-|-----------------------------|
 Medium palm mute .  . . . .  . . .   .


                                        Or this.Whatever feel easy
|---------------------------------------|-----------------------------|
|---------------------------------------|-----------------------------|
|-----------8-8-8-8-----------9-8-------|---9-8-6-4-------------------|
|--9-9-9-9--8-8-8-8--6-6-6-6--9-8-11--9-|---9-8-6-4-------------------|
|--9-9-9-9--6-6-6-6--6-6-6-6--7-6-11--9-|---7-6-4-2-------------------|
|--7-7-7-7-----------4-4-4-4------9---7-|-----------------------------|
 Medium palm mute .  . . . .  . . .   .

[ Tab from: http://www.guitartabs.cc/tabs/m/michale_graves/1119_tab.html ]
                                         Or this.Whatever feel easy
|---------------------------------------|-----------------------------|
|---------------------------------------|-----------------------------|
|-----------8-8-8-8-----------9-8-------|---9-8-6-4-------------------|
|--9-9-9-9--8-8-8-8--6-6-6-6--9-8-11--9-|---9-8-6-4-------------------|
|--9-9-9-9--6-6-6-6--6-6-6-6--7-6-11--9-|---7-6-4-2-------------------|
|--7-7-7-7-----------4-4-4-4------9---7-|-----------------------------|
 Medium palm mute .  . . . .  . . .   .

 main riff   or single notes what ever sounds better to you
|-----------|---------------------------------------------------------|
|-----------|---------------------------------------------------------|
|-----------|---------------------------------------------------------|
|-----------|---------------------------------------------------------|
|--2-2-4-5--|---------------------------------------------------------|
|--0-0-2-3--|--0-0-2-3------------------------------------------------|
 Pm. . . .   Pm. . . .


|---------------------------------------------------------------------|
|---------------------------------------------------------------------|
|---------------------------------------------------------------------|
|--9-9--9-9-9----8-8--8-8-8----7-7--7-7-7----6-6--6-6-6---------------|
|--9-9--9-9-9----8-8--8-8-8----7-7--7-7-7----6-6--6-6-6---------------|
|--7-7--7-7-7----6-6--6-6-6----5-5--5-5-5----4-4--4-4-4---------------|
 Medium palm mute. .  . . .    . .  . . .    . .  . . .


|---------------------------------------------------------------------|
|---------------------------------------------------------------------|
|---------------------------------------------------------------------|
|--9-9--9-9-9----8-8--8-8-8----7-7--7-7-7-----------------------------|
|--9-9--9-9-9----8-8--8-8-8----7-7--7-7-7-----------------------------|
|--7-7--7-7-7----6-6--6-6-6----5-5--5-5-5-----------------------------|
 Medium palm mute. .  . . .    . .  . . .    


                                         Or this.Whatever feel easy
|---------------------------------------|-----------------------------|
|---------------------------------------|-----------------------------|
|-----------8-8-8-8-----------9-8-------|---9-8-6-4-------------------|
|--9-9-9-9--8-8-8-8--6-6-6-6--9-8-11--9-|---9-8-6-4-------------------|
|--9-9-9-9--6-6-6-6--6-6-6-6--7-6-11--9-|---7-6-4-2-------------------|
|--7-7-7-7-----------4-4-4-4------9---7-|-----------------------------|
 Medium palm mute .  . . . .  . . .   .


                                         Or this.Whatever feel easy
|---------------------------------------|-----------------------------|
|---------------------------------------|-----------------------------|
|-----------8-8-8-8-----------9-8-------|---9-8-6-4-------------------|
|--9-9-9-9--8-8-8-8--6-6-6-6--9-8-11--9-|---9-8-6-4-------------------|
|--9-9-9-9--6-6-6-6--6-6-6-6--7-6-11--9-|---7-6-4-2-------------------|
|--7-7-7-7-----------4-4-4-4------9---7-|-----------------------------|
 Medium palm mute .  . . . .  . . .   .


                                        Or this.Whatever feel easy
|---------------------------------------|-----------------------------|
|---------------------------------------|-----------------------------|
|-----------8-8-8-8-----------9-8-------|---9-8-6-4-------------------|
|--9-9-9-9--8-8-8-8--6-6-6-6--9-8-11--9-|---9-8-6-4-------------------|
|--9-9-9-9--6-6-6-6--6-6-6-6--7-6-11--9-|---7-6-4-2-------------------|
|--7-7-7-7-----------4-4-4-4------9---7-|-----------------------------|
 Medium palm mute .  . . . .  . . .   .


                                         Or this.Whatever feel easy
|---------------------------------------|-----------------------------|
|---------------------------------------|-----------------------------|
|-----------8-8-8-8-----------9-8-------|---9-8-6-4-------------------|
|--9-9-9-9--8-8-8-8--6-6-6-6--9-8-11--9-|---9-8-6-4-------------------|
|--9-9-9-9--6-6-6-6--6-6-6-6--7-6-11--9-|---7-6-4-2-------------------|
|--7-7-7-7-----------4-4-4-4------9---7-|-----------------------------|
 Medium palm mute .  . . . .  . . .   .




 Think that's it.Any ? corrections e-mail at goingdown2die@yahoo.com
Comments