Michael W Smith - Prince Of Peace Chords & Tabs

 

Prince Of Peace Chords & Tabs

Michael W Smith Chords & Tabs

Version: 1 Type: Tab

Prince Of Peace Tab

   
Song: Prince of Peace
Band: Michael W smith
Tuning: standard

this is a good song and i can't believe no one had this song on here

verse: (these are the note that are played though there is no guitar)
 (figure out the strumming pattern)
 G       C9       D               D        G
|-33333---33333----22222-------|--2-2--3---3----------------------------|
|-33333---33333----33333-------|--3-3--3---3----------------------------|
|-00000---00000----22222-------|--2-2--0---0---2times-------------------|
|-00000---22222----00000-------|--0-0--0---0----------------------------|
|-22222---33333----xxxxx-------|--x-x--x---2----------------------------|
|-33333---xxxxx----xxxxx-------|--x-x--x---3----------------------------|
[ Tab from: http://www.guitartabs.cc/tabs/m/michael_w_smith/prince_of_peace_tab.html ]
Chorus:
  C9  D  Em  Bm    (4th time) C9  D  Em Am (My Prince of...) C9   D   G
|-3---2--0---0--------|--------3--2--0--0----|---------------333~-22--3------|
|-3---3--0---3--------|--------3--3--0--1----|---------------333~-33--3------|
|-0---2--0---4--(3X)--|--------0--2--0--2----|---------------000~-22--0------|
|-2---0--2---4--------|--------2--0--2--2----|---------------222~-00--0------|
|-3---x--2---2--------|--------3--x--2--0----|---------------333~-xx--2------|
|-x---x--0---x--------|--------x--x--0--x----|---------------xxx--xx--3------|

Outro
  Em  D  C9 G  C9   (End) D     G
|-0---2--3--3--3--|-------223---3~-----|
|-0---3--3--3--3--|-------333---3~-----|
|-0---2--0--0--0--|-------220---0~-----|
|-2---0--2--0--2--|-------000---0~-----|
|-2---x--3--2--3--|-------xxx---2~-----|
|-0---x--x--3-----|-------xxx---3~-----|

thats it!  Cool but Easy