Michael Learns To Rock - Im Gonna Be Around Chords & Tabs

 

Im Gonna Be Around Chords & Tabs

Michael Learns To Rock Chords & Tabs

Version: 1 Type: Tab 0 ratings
1 star 2 stars 3 stars 4 stars 5 stars
comments

Im Gonna Be Around Tab

   
||album||nothing to lose||
||TabbedBy|levonlopez||
||song||I'm gonna be around||
||Artist||Michael Learns To rock||
||e-mail||blue_night4008@yahoo.com/chat

  "guitar"
e|--------5-----------5----------|
b|--3--------3-----3-------------|
g|-----2--------2----------------|
d|-------------------------------|
a|-------------------------------|
E|-------------------------------|

e|-----------5-----------5-------|
b|--3-----3-----3-----3----------|
g|-----2-----------2-------------|
d|-------------------------------|
a|-------------------------------|
E|-------------------------------|

e|-------------------------------|
b|--3-----3----------------------|
g|-----2------------------2h3-2h-|
d|-------------------------------|
a|-------------------------------|
E|-------------------------------|
                      oh   Oh
e|--------------0----------------|
b|-----------2-------------------|
g|--------2----------------------|
d|-------------------------------|
a|-------------------------------|
E|-------------------------------|
               Ooh oh hO hoo ho
e|---------------(0)-------------|
b|--(3)-(2)-(3)--(3)-------------|
g|---------------(4)-------------|
d|-------------------------------|
a|-------------------------------|
E|-------------------------------|

e|-------------------------------|
b|--3-3--2-----2--4h5---3--------|
g|----------4--------------------|
d|-------------------------------|
a|-------------------------------|
E|-------------------------------|


 D            Em7           A        D
 It's been so long since we took the time

    Bm    Em7   A      A         A
 to share words from deep inside us

 D         Em7          Fm           Bm
 We're on our own world spinning our wheels

 Em7     A          Em7-D
 but you know how i feel
 D         Em7          A         D
 since the firts time i took your hand
[ Tab from: http://www.guitartabs.cc/tabs/m/michael_learns_to_rock/im_gonna_be_around_tab.html ]
   Bm        Em7  A      A         A
 my love for you  has just been growing
 D   Em7            A   Bm
 you always seem to understand

 Em7            A
 You know how I am,ooh

 |Chorus|
 D         Em7      A       D
 I'm gonna love you til the end

       D
 {I'm gonna be/ I'm gonna love you)

   Bm       Em7 A       A        A
  I'm gonna be  your very true friend
   (yours)

  D       Em7        A       Bm
  i wanna share your ups and downs
           Bm
  (Ooh-hooo|your ups and downs)
  Em7       A  Em7-D
  I'm gonna be around

  D           Em7        A   D
  When you're alone 'coz I'm away
  Bm       Em7  A     A     A
  don't be sad, don't be afraid

  D         Em7     Fm          Bm
  i'm gonna turn my thougths to you

  Em7           A
  like I always do,yeah


  |rEpeat chOrus|
  |Bridge|

  Fm
  Catch you when you fall
  A
  hold you when you're down
  F#m
  sharing every moment
  Fm                    A-g#m
  Iwanna show you all i do
    g#m                 A        E-A
  I believe I've found a miracle in you


  A         D         Em7     A
  I'm gonna love you 'til the end

  Fm       Bm   E      E        E
  i'm gonna be  your very true friend
  A       D          Fm      Bm
  I wanna share your ups and downs
   Em7          A-D
  I'm gonna  be around
  D         Em7       A        D
  I'm gonna love you 'till the end

  (i'm gonna be)

    Bm      Em7  A       A      A
  I'm gonna be   your very true friend
  D       Em7        A       Bm
  I wanna share your ups and downs
                          Em7
  (Oooh-hooo/your ups and downs)

  Em7           A-D
  i'm gonna be around
  (Repeat 2x 'til fade)
Comments