Michael Jackson - Give In To Me Chords & Tabs

 

Give In To Me Chords & Tabs

Michael Jackson Chords & Tabs

Version: 2 Type: Tab 0 ratings
1 star 2 stars 3 stars 4 stars 5 stars
comments

Give In To Me Tab

#----------------------------------PLEASE NOTE---------------------------------#
#This file is the author's own work and represents their interpretation of the #
#song. You may only use this file for private study, scholarship, or research. #
#------------------------------------------------------------------------------#
Give in to me - Slash / Michael Jackson
Tabbed & transcribed by karan 


---------------------------------------------------------------------------------
-------------------------------3--------3----------------------------------------
-------------0-----------------0--------0----------------------------------------
--------2/4-----4\2--------2---------4-------------------------------------------
-----2---------------2--3--------5-----------------------------------------------
--0------------------------------------------------------------------------------

Intro x 2
She always takes it with a heart of stone
Cause all she does is throw it back to me
I've spent a lifetime looking for someone



-----------------------------------------------------------------------------------------
-----0----0----0-------0-----1----1--1-------1-----0----0----0-------0-----3------3----3-
-----4----4----4-------4-----2----2--2-------2-----4----4----4-------4-----2--------2--2-
--4--4--4-4--4-4----4--4--2--2----2--2----2--2--4-----4----4------4-----0-------0------0-
--2-----2----2------2-----0-------0--0----0-----2-----2----2------2----------------------
-----------------------------------------------------------------------------------------
  
Don't try to understand me  Just simply do the things i say



---------------0--------------------------0---------------------------------------- x 3
---------------0-----------------3--------3----------------------------------------
---------------0----------5------2-------------------------------------------------
--------------------------5------0-------------------------------------------------
------2-------------------3--------------------------------------------------------
--(x\)0----------------------------------------------------------------------------

Love is a feeling  Give it when i want it
Cause i'm on fire  Quench my desire
Give it when i want it  Talk to me woman



-----------0-----------------------------------------------------------------------
-----------0-----------------------------------------------------------------------
-----------0----------5------4-----------------------------------------------------
----------------------5------4-----------------------------------------------------
--2-------------------3------2-----------------------------------------------------
--0--------------------------------------------------------------------------------

Give in to me  Give in to me



---------------------------------------------------------------------------------
-------------------------------3--------3----------------------------------------
-------------0-----------------0--------0----------------------------------------
--------2/4-----4\2--------2---------4-------------------------------------------
-----2---------------2--3--------5-----------------------------------------------
--0------------------------------------------------------------------------------

You always knew just how to make me cry
And never did i ask you questions why
It seems you get your kicks from hurting me



-----------------------------------0--------------------------------------2----------
-----0-------0----0-------1--1-----1----------0----------------0-----3--------3-3--3-
-----4-------4----4-------2--2-----2----------4--4-----4-------4-----2----------2--2-
--4--4----4--4----4--2----2--2--2--2----------4--------4-------4--0--0--0----------0-
--2-------2----------0----------0-------------2-----2-------2------------------------
-------------------------------------------------------------------------------------

Don't try to understand me  Because your words just aren't enough



                           (1/4 ton)                                  (1/4 ton)
-----------------------------------------------------------------------------------------
-----------------------------------------------------------------------------------------
------------------------------4------------------(4)----------------------4--------------
------------------------------5b------------------5----4~~----------------5b-------------
-------------------5-6-7---------------5-6-7-------------------5-6-7---------------------
--\x----x/x\x--(7)------------------7-----------------------7---------------------------

Love is a feeling  Quench my desire Give it when i want it



                                      (1/4 ton)
--------------------------------------------------------------------------------------------
--------------------------------------------------------------------------------------------
---------------(4)----------------------4------------------(4)------------------------------
----------------5----4~~----------------5b------------------5----4~~------------------------
-----5-6-7-------------------5-6-7---------------5-6-7-------------------5-6-7------7~~-----
--7-----------------------7-------------------7-----------------------7---------------------

Takin' me higher  Love is a woman  I don't wanna hear it Give in to me  Give in to me



----------------------------------------------------------------0-0--------------------0-0-
-----1-1---------1-1-------3-3--------3-3-----------------------0-0--------------------0-0-
-----2-2---------2-2-------0-0--------0-0-----------------------0-0--------------------0-0-
--2--2-2---2-----2-2-----------------------------------------------------------------------
--0--------0-----------------------------------7b(9)------7-----------7b(9)------7---------
------------------------3--------3-----------0---------------0------0---------------0------

?????????????????????????????????????????  But it's ok But it's ok


-----------------------------------------------0-0---0------------------------------------------
-----1-1---------1-1-------3-3--------3-3------0-0---0------------0----------0------5--4--4-4-4-
-----2-2---------2-2-------0-0--------0-0------2-2---2------------4----4-----4------4--4--4-4-4-
--2--2-2---2-----2-2---------------------------3-3---3------------4----4-4-4-4------4--4--4-4-4-
--0--------0--------------------------------3--------3------------2----------2------2--2--2-2-2-
------------------------3--------3----------1--------1------------------------------------------

You won't be laughin' girl when i'm not around (?) I'll be ok  
And i'd i'd never find better peace of mind no



Solo #1 :

----------------------------------------------------------------------------
-------------------------7--7r(8)(7)---7br(8)(7)~~--10br(12)(10)p8----------
--7r(9)(7)--9~~-------9--------------9-----------------------------9--------
-------------------9--------------------------------------------------------
----------------------------------------------------------------------------
----------------------------------------------------------------------------


--7-10----------7-10-----------------------10----10------------------------------
-------10b(12)-------10r(12)(10)-8---10/12----12----12\10-8-10---15b(17)~~-------
-----------------------------------9---------------------------9-----------------
---------------------------------------------------------------------------------
---------------------------------------------------------------------------------
---------------------------------------------------------------------------------


---------------------------------------------------------------------------------------17br(19)(17)==-
--15b(17)-17b(19)-17b(19)-19br(20)(19)p17-------17brbr(19)(17)(19)~~-17r(19)(17)-15-------------------
------------------------------------------19p16-------------------------------------16----------------
------------------------------------------------------------------------------------------------------
------------------------------------------------------------------------------------------------------
------------------------------------------------------------------------------------------------------


[ Tab from: http://www.guitartabs.cc/tabs/m/michael_jackson/give_in_to_me_tab_ver_2.html ]
-----------------------------------0--------------------------------------2----------
-----0-------0----0-------1--1-----1----------0----------------0-----3--------3-3--3-
-----4-------4----4-------2--2-----2----------4--4-----4-------4-----2----------2--2-
--4--4----4--4----4--2----2--2--2--2----------4--------4-------4--0--0--0----------0-
--2-------2----------0----------0-------------2-----2-------2------------------------
-------------------------------------------------------------------------------------

Don't try to tell me  Because your words just aren't enough



                           (1/4 ton)                                  (1/4 ton)
-----------------------------------------------------------------------------------------
-----------------------------------------------------------------------------------------
------------------------------4------------------(4)----------------------4--------------
------------------------------5b------------------5----4~~----------------5b-------------
-------------------5-6-7---------------5-6-7-------------------5-6-7---------------------
--\x----x/x\x--(7)------------------7-----------------------7---------------------------

Love is a feeling  Quench my desire Give it when i want it



                                      (1/4 ton)                                 (1/4 ton)
-----------------------------------------------------------------------------------------
-----------------------------------------------------------------------------------------
---------------(4)----------------------4------------------(4)---------------------4--\x-
----------------5----4~~----------------5b------------------5---4~~----------------5b-\x-
-----5-6-7-------------------5-6-7---------------5-6-7------------------5-6-7------------
--7-----------------------7-------------------7----------------------7-------------------

Takin' me higher  Talk to me woman  Love is a feeling  Give in to me  Give in to me  Give in to me



                           (1/4 ton)                                  (1/4 ton)
-----------------------------------------------------------------------------------------
-----------------------------------------------------------------------------------------
------------------------------4------------------(4)----------------------4--------------
------------------------------5b------------------5----4~~----------------5b-------------
-------------------5-6-7---------------5-6-7-------------------5-6-7---------------------
--\x----x/x\x--(7)------------------7-----------------------7---------------------------

Love is a feeling  I don't wanna hear it  Quench my desire  



                                      (1/4 ton)                                 (1/4 ton)
-----------------------------------------------------------------------------------------------------
-----------------------------------------------------------------------------------------------------
---------------(4)----------------------4------------------(4)---------------------4-----------------
----------------5----4~~----------------5b------------------5---4~~----------------5b----------------
-----5-6-7-------------------5-6-7---------------5-6-7------------------5-6-7----------------5-6-7\x-
--7-----------------------7-------------------7----------------------7---------------------7---------

Takin' me higher  Tell it to the preacher  Satisfy the feeling  Give in to me
Give in to me Give in to me



Solo #2 :

               (1/4 ton)                                    (1/4 ton)
-----------------------------------------------------------------------------------------------------
-----------------------------------------------------------------------------------------------------
-----------------------4-4------------7--------------------------------------------4-4---4-7-7/9-9-7-
-----------------5b--------7-5-5h7--5----4--5--4h5p4--------5---5b---------7-7-5-------7-------------
--------5-6-7~~--------------------------------------7--5-7---7-----7--5---------7-------------------
--\x--7------------------------------------------------------------------7---------------------------


------------------------------------------------------------------------------------------------------
----7---8---7==h8p7---7==h8p7---7==h8p7---7==h8p7---7h8p7---7h8p7---7h10p7---7h8p7---7h10p7---7h8p7---
----------9---------9---------9---------9---------9-------9-------9--------9-------9--------9-------9-
--9---9-----------------------------------------------------------------------------------------------
------------------------------------------------------------------------------------------------------
------------------------------------------------------------------------------------------------------


----------------------------------------------------------------------------------
--7h10p7---7h8p7---7h10p7---7h8p7---7h10p7---7h8p7---7h10p7---7h8p7---7h8p7-------
---------9-------9--------9-------9--------9-------9--------9-------9-------9-----
----------------------------------------------------------------------------------
----------------------------------------------------------------------------------
----------------------------------------------------------------------------------


---------7h8p7h10p7h8h10p8p7----10----7h8p7----7------------10------------------------------------------
--7h8h10---------------------10----10-------10---10-10b(12)====10r(12)(10)-8---8-10-8---8-8r(10)(8)-----
-----------------------------------------------------------------------------9--------9-------------9-9-
--------------------------------------------------------------------------------------------------------
--------------------------------------------------------------------------------------------------------
--------------------------------------------------------------------------------------------------------


   
-----------------12----------------------12--------------12----------------12-----------------
--12b(15)~~~~-~-~---12-15b(17)-15b(17)~~----12-15b(17)~~----(12)15b(17)~~----(12)15b(17)~~--
----------------------------------------------------------------------------------------------
----------------------------------------------------------------------------------------------
----------------------------------------------------------------------------------------------
----------------------------------------------------------------------------------------------


--12---------------------------------14------------------------------17-----------
-----12-15b(17)~~15r(17)(15)-17b(20)----17-17r(19)(17)-17-17-17b(20)--------------
----------------------------------------------------------------------------------
----------------------------------------------------------------------------------
----------------------------------------------------------------------------------
----------------------------------------------------------------------------------


----------12----------------------------------------------------------------------
--15b(17)----15-12----------------------------------------------------------------
-------------------14r(15)(14)-12-14--12-14b(16)----------------------------------
----------------------------------------------------------------------------------
----------------------------------------------------------------------------------
----------------------------------------------------------------------------------


Attention, phrase ultra-rapide 
--------------------------------------------------------------------------
--------------------------------------------------------------------------
------------------------------------------4-4h5---4-5-7-4h5p4---4-5/7/9---
--------------------------5h7---4h5----4h5------7-------------7-----------
----------------5--8h9--7-------------7-----------------------------------
-7-h8--5--7--8------------------------------------------------------------

-------------------------------------------------------------------------------------
----------7h8h10/12-8h10h12/15-p13h15p13p12----13--12b(13)(12)\10h12h15--------------
-11p9p7h9-----------------------------------14------------------------14b(16)--------
-------------------------------------------------------------------------------------
-------------------------------------------------------------------------------------
-------------------------------------------------------------------------------------



I don't wanna hear it
Give it to the fire
Talk to me woman
Quench my desire
I don't like it lady
Talk to me baby
Give in to me

Give it to the fire
Give in to me
Give in to me
Love is a woman
Give in to me
Give in to me
Give in to me
Give in to me
Causde i'm on fire
Talk to me woman
Quench my desire
Give it to the feeling


Well thas the full song !!!!!!!!!!!!!

A real classic 
Slash as usual Rocks and kicks huge asses 

A tribute to slash . hees mi god .. any comments on this.
plz e mail at attitudeon@hotmail.com


Keep rockin enjoy !!!!!!!!!
Comments