Michael Jackson - Dirty Diana Chords & Tabs

 

Dirty Diana Chords & Tabs

Michael Jackson Chords & Tabs

Version: 2 Type: Tab 0 ratings
1 star 2 stars 3 stars 4 stars 5 stars
comments

Dirty Diana Tab

   
D,A,D,G,B,E
i was just playing around with drop D and this song and this is what i got
Listen to the song to see there to through in the X's
[ Tab from: http://www.guitartabs.cc/tabs/m/michael_jackson/dirty_diana_tab_ver_2.html ]
D--5--8--5-3-5--1--3---------------------
A--5--8--5-3-5--1--3---------------------
D--5--8--5-3-5--1--3---------------------
G----------------------------------------
B----------------------------------------
e----------------------------------------

D--3H5----5-3-5--1--3--------------------
A--3H5-3--5-3-5--1--3--------------------
D--3H5-3--5-3-5--1--3--------------------
G------3---------------------------------
B----------------------------------------
E----------------------------------------

There is it dont have too much fun
Brandon Lowry
Comments