Michael Jackson - Dirty Diana Chords & Tabs

 

Dirty Diana Chords & Tabs

Michael Jackson Chords & Tabs

Version: 1 Type: Tab 0 ratings
1 star 2 stars 3 stars 4 stars 5 stars
comments

Dirty Diana Tab

This song is easy to play, and is quite slow with minimal effects.

INTRO/VERSE:
E:--10---10----------6---8---
b:--11------11-------8---10--
g:--12------------12-8---10--
d:--12---------12----8---10--
a:--10---------------6---8---
e:---------------------------

[ Tab from: http://www.guitartabs.cc/tabs/m/michael_jackson/dirty_diana_tab.html ]
CHORUS:
E:-------------------6---8---
b:-----------11------8---10--
g:-----12-12----12---8---10--
d:--12---------------8---10--
a:----or-could-play----------
e:----bass-instead-----------


OUTRO:
E:--15----15---13----11--13--
b:-------------------11--13--
g:-------------------8---10--
d:-------------------8---10--
a:---------------------------
e:---------------------------


Alternatively, you can play lower open chords
instead of the above progression.
(*) down-tune half a step and play:     G#m E F#
or you can
(*) use a capo on the 3rd fret and play Em  C D

Comments