Michael Jackson - Black Or White Chords & Tabs

 

Black Or White Chords & Tabs

Michael Jackson Chords & Tabs

Version: 2 Type: Tab 0 ratings
1 star 2 stars 3 stars 4 stars 5 stars
comments

Black Or White Tab

Michael Jackson, Blacl or white.
 Tabbed by Lloyd, Lloyd121loverboy@aol.com.
  
E-3-3-3-3-3-----------------------
B-3-3-3-3-3-----------------------
G-2-2-2-2-2----------------------- x5(5 times)
D---------------------------------
A---------------------------------
E---------------------------------
[ Tab from: http://www.guitartabs.cc/tabs/m/michael_jackson/black_or_white_tab_ver_2.html ]
E--2----------------2-------------
B--3-------3-3-3----3-------------
G--2-------2-2-2----2-------------
D---------------------------------
A---------------------------------
E---------------------------------
   Do this twice then follow it on to this
E-2-2-2---------------------------
B-3-3-3------2--------------------
G-2-2-2------2-------x15 do it fast
D------------2--------------------
A---------------------------------
E---------------------------------

E----3-------------------------
B------------------------------
G--------------Do this seven times its Gchord
D------------------------------
A----2-------------------------
E----3-------------------------

and thats it!!! do it over and over again with da song,!!! email me if ya got any troubles with it 
:: Ultimate Guitar Archive :: 
http://www.ultimate-guitar.com 



Comments