Michael Jackson - Black Or White Chords & Tabs

 

Black Or White Chords & Tabs

Michael Jackson Chords & Tabs

Version: 1 Type: Tab 0 ratings
1 star 2 stars 3 stars 4 stars 5 stars
comments

Black Or White Tab

Michael Jackson Black or White {corrected}.
 Tabbed by anonymous.
  
READ: very important: do not play E A D strings during whole song
 
E --------4----------------5------------------------------------                
B-------------------5-----------------------------------------
G --4---------------------------------------------------------   same time
D-----------------------------------------------------------
A-----------------------------------------------------------
E-----------------------------------------------------------
_____________________________________________________________________________________________

lift pinky
 
E------4---------------------------------------------------------
B------------5---------------------------------------------------
G--4-------------------------------------------------------------
___________________________________________________________________________________________

E---2--------------------------------------------------------------
B----------3------------------------------------------------------        D chord
G--2--------------------------------------------------------------  
:: Ultimate Guitar Archive :: 
http://www.ultimate-guitar.com 




[ Tab from: http://www.guitartabs.cc/tabs/m/michael_jackson/black_or_white_tab.html ]
Comments