Michael Jackson - Billie Jean Chords & Tabs

 

Billie Jean Chords & Tabs

Michael Jackson Chords & Tabs

Version: 3 Type: Bass Tab 0 ratings
1 star 2 stars 3 stars 4 stars 5 stars
comments

Billie Jean Bass Tab

This is a BASS tab for Michael Jackson's Billy Jean song:

Billy Jean

Bass tab

F# through the verse till D

g ------------------------
d --4---2--4---2----------
a ----4-----------4--2----
e ------------------------

on Dm it's

g -------------------------
d ----4------4--2--4-------
a --2---0-2----------------
e -------------------------

Pre-verse:

People always tell me..

g -------------------------
d -------------------------
a --5----------------------
e -------------------2-----

Be careful what you do

g -------------------------
d --4----------------------
a -------------------------
e ------------------2------

And don't go...
[ Tab from: http://www.guitartabs.cc/tabs/m/michael_jackson/billie_jean_btab_ver_3.html ]
g -------------------------
d -------------------------
a --5----------------------
e -------------------2-----

young girls hearts...

g -------------------------
d --4----------------------
a -------------------------
e ------------------2------

And mother...

g -------------------------
d -------------------------
a --5----------------------
e -------------------2-----

be careful who yo love

g -------------------------
d --4----------------------
a -------------------------
e ------------------2------


and be careful what you do 'cause the

g -------------------------
d -------------------------
a --5------------------5-5-
e -------------------------

lie becomes the truth

g -------------------------
d -------------------------
a --3-3-3-3-3--------------
e -------------------------

Then it repeats from the top.
Comments