Michael Jackson - Beat It Chords & Tabs

 

Beat It Chords & Tabs

Michael Jackson Chords & Tabs

Version: 4 Type: Tab 2 ratings
1 star 2 stars 3 stars 4 stars 5 stars
comments

Beat It Tab

main riff
e-----------------------------------------------------------------|
b-----------------------------------------------------------------|
g-----------------------------------------------------------------|
d---------------5--2--2h4--2--0--0--------------------------------|
a-----------2-----------------------------------------------------|
e---0---3---------------------------------------------------------|

e----------------------------------------------------------------|
b----------------------------------------------------------------|
g----------------------------------------------------------------|
d--------------5--2--2h4--2--0-----------------------------------|
a-----------2----------------------------------------------------|
e---0---3--------------------------------------------------------|
[ Tab from: http://www.guitartabs.cc/tabs/m/michael_jackson/beat_it_tab_ver_4.html ]
Comments