Michael Jackson - Beat It Chords & Tabs

 

Beat It Chords & Tabs

Michael Jackson Chords & Tabs

Version: 1 Type: Tab 3 ratings
1 star 2 stars 3 stars 4 stars 5 stars
comments

Beat It Tab

micheal jackson/beat it.
 Tabbed by zack/www.motoxer1212@aol .com.
  
1-----------------------------------------------------
2-----------------------------------------------------
3-----------------------------------------------------
4--------------5---2---4---2--------------------------
5----------2-------------------5---5------------------
6--0---3----------------------------------------------


1-------------------
2---------------------------------
3-12--12---9---------12--12---9-----
4-12--12---9---------12--12---9-----
5---------------------------------
6--------------------------------- 
:: Ultimate Guitar Archive :: 
http://www.ultimate-guitar.com 




[ Tab from: http://www.guitartabs.cc/tabs/m/michael_jackson/beat_it_tab.html ]
Comments